Log in

One click and you are in

Login with Facebook Login with Google

Why sign up and log in

Guitar Tabs Explorer
Tom Petty And The Heartbreakers bass tabs for Turning point

Turning Point bass tab - Tom Petty And The Heartbreakers

Tom Petty And The Heartbreakers bass tabs for Turning point

Bass tabs

Intro: enter at :06:

G|-----|-----------------|-----------------|-----------------|-----------------|
D|-0-/-|-5---5-----------|-----5-----------|-5---5-----------|-----5-----------|
A|-----|---------------3-|---3-------------|---------------5-|---5-------------|
E|-----|-----------------|-----------------|-----------------|-----------------|
Verse:

G|-----------------|-----------------|-----------------|-----------------|
D|/5---5---5-5-5---|-----5---5-5-5-5-|/5---5---5-5-5-5-|---5-5-----5-5-5-|
A|---------------3-|---3-------------|-----------------|-----------------|
E|-----------------|-----------------|-----------------|-----------------|

G|-----------------|-----------------|-----------------|-----------------|
D|/5---5---5-5-5---|-----5---5-5-5-5-|/5---5---5-5-5---|---5-5-----5-5-\-|
A|---------------3-|---3-------------|---------------5-|-----------------|
E|-----------------|-----------------|-----------------|-----------------|


Chorus:

G|-----------------|-----------------|-----------------|-----------------|
D|---------------3-|---3-------------|-----------------|-----------------|
A|-3---3---3-3-3---|-----3---3-3-3-3-|-3---3---3-3-3---|-----3-----3-3-3-|
E|-----------------|-----------------|---------------3-|---3-------------|

G|-----------------|-----------------|-----------------|-----------------|
D|/5---5---5-5-5---|-----5---5-5-5-5-|/5---5---5-5-5---|---5-5-----5-5-\-|
A|---------------3-|---3-------------|---------------5-|-----------------|
E|-----------------|-----------------|-----------------|-----------------|


Instrumental:

G|-----------------|-----------------|-----------------|-----------------|
D|-----2---5-5---3-|---3-------------|-----2---5-5-----|-----------------|
A|-3-3---3-----3---|-----3-----3-3-3-|-3-3---3-----3---|-----3-----3-3-3-|
E|-----------------|-----------------|---------------3-|---3-------------|

G|-----------------|-----------------|-----------------|-----------------|
D|/5---5---5-5-5---|---5-5---5-5-5-5-|/5---5---5-5-5---|-----5-----5-5-5-|
A|---------------3-|-----------------|---------------5-|---5-------------|
E|-----------------|-----------------|-----------------|-----------------|

Verse:

G|-----------------|-----------------|-----------------|-----------------|
D|/5---5---5-5-5---|-----5---5-5-5-5-|/5---5---5-5-5---|-----5---5-5-5-5-|
A|---------------3-|---3-------------|---------------5-|---5-------------|
E|-----------------|-----------------|-----------------|-----------------|

G|-----------------|-----------------|-----------------|-----------------|
D|/5---5---5-5-5---|-----5---5-5-5-5-|/5---5---5-5-5---|-----5-----5-5-\-|
A|---------------3-|---3-------------|---------------5-|---5-------------|
E|-----------------|-----------------|-----------------|-----------------|


Chorus:

G|-----------------|-----------------|-----------------|-----------------|
D|---------------3-|---3-------------|---------------5-|---5-------------|
A|-3---3---3-3-3---|-----3-----3-3-3-|-3---3-----------|-----3-----3-3-3-|
E|-----------------|-----------------|-----------------|-----------------|

G|-----------------|-----------------|-----------------|-----------------|
D|/5---5---5-5-5---|-----5---5-5-5-5-|/5---5---5-5-5---|---5-5-----5-5-\-|
A|---------------3-|---3-------------|---------------5-|-----------------|
E|-----------------|-----------------|-----------------|-----------------|


Solo:

G|-----------------|-----------------|-----------------|-----------------|
D|-----2---5-5---3-|-----2---5-5---3-|-----4---7-7---5-|-----4---7-7---5-|
A|-3-3---3-----3---|-3-3---3-----3---|-5-5---5-----5---|-5-5---5-----5---|
E|-----------------|-----------------|-----------------|-----------------|

G|-----------------|-----------------|-----------------|-----------------|
D|-----2---5-5---3-|-----2---5-5---3-|-----4---7-7---5-|-----4---7-7---5-|
A|-3-3---3-----3---|-3-3---3-----3---|-5-5---5-----5---|-5-5---5-----5---|
E|-----------------|-----------------|-----------------|-----------------|


Verse:

G|-----------------|-----------------|-----------------|-----------------|
D|/5---5---5-5-5---|-----5---5-5-5-5-|/5---5---5-5-5---|-----5---5-5-5-5-|
A|---------------3-|---3-------------|---------------5-|---5-------------|
E|-----------------|-----------------|-----------------|-----------------|

G|-----------------|-----------------|-----------------|-----------------|
D|/5---5---5-5-5---|-----5---5-5-5-5-|/5---5---5-5-5---|-----5---5-5-5-\-|
A|---------------3-|---3-------------|---------------5-|---5-------------|
E|-----------------|-----------------|-----------------|-----------------|


Chorus:

G|-----------------|-----------------|-----------------|-----------------|
D|---------------3-|---3-------------|---------------5-|---5-------------|
A|-3---3---3-3-3---|-----3-----3-3-3-|-3---3-----------|-----3-----3-3-3-|
E|-----------------|-----------------|-----------------|-----------------|

G|-----------------|-----------------|-----------------|-----------------|
D|/5---5---5-5-5---|-----5---5-5-5-5-|/5---5---5-5-5---|---5-5---5-5-----|
A|---------------3-|---3-------------|---------------5-|-------------3-/-|
E|-----------------|-----------------|-----------------|-----------------|

G|-----------------|-----------------|-----------------|-----------------|
D|/5---5---5-5-5---|-----5---5-5-5-5-|/5---5---5-5-5---|---5-5---5-5-5-\-|
A|---------------3-|---3-------------|---------------5-|-----------------|
E|-----------------|-----------------|-----------------|-----------------|


Instrumental:

G|-----------------|-----------------|-----------------|-----------------|
D|-----2---5-5---3-|---3-------------|-----2---5-5---5-|---5-------------|
A|-3-3---3-----3---|-----3-----3-3-3-|-3-3---3-----3---|-----3-----3-3-3-|
E|-----------------|-----------------|-----------------|-----------------|


Outro:

G|-----------------|-----------------|-----------------|-----------------|
D|/5---5---5-5-5---|-----5---5-5-5-5-|/5---5---5-5-5---|---5-5---5-5-5---|
A|---------------3-|---3-------------|---------------5-|---------------3-|
E|-----------------|-----------------|-----------------|-----------------|

G|-----------------|-----------------|-----------------|-----------------| (Repeat to fade)
D|/5---5---5-5-5---|-----5---/-5-5---|/5---5---5-5-5---|-----5---/-5-5-5-|
A|---------------3-|---3-------------|---------------3-|---3-------------|
E|-----------------|-----------------|-----------------|-----------------|


Hope you enjoy! Let me know if you have corrections!

************************************

| /  Slide up
| \  Slide down

Almost there ...

Sign in to get your own page with links to favourite songs and more. You are just one click away...

Login with Facebook Login with Google