Log in

One click and you are in

Login with Facebook Login with Google

Why sign up and log in

Guitar Tabs Explorer
Tom Petty And The Heartbreakers bass tabs for Mary janes last dance

Mary Janes Last Dance bass tab by Tom Petty And The Heartbreakers

Tom Petty And The Heartbreakers bass tabs for Mary janes last dance

Bass tabs

Intro:
G|----14-|
D|-7-----|
A|-------|
E|-------|

G|-------------------5---------|
D|-----------------------------|
A|-----5-------3--5----------5-|x2
E|--5-----3-3-----------5-5----|
Verse:
G|---------------------5--------------|
D|------------------------------------|
A|-----5-------3--5-5----------5----5-|x8
E|--5-----3-3-------------5-5-----5---|


Chorus:
G|----7-------7-----7-------7-------------------------------------|
D|-----------------------------------5-------5-------5-------5----|
A|-7-----7-7----7-7----7-7-----7----------------------------------|
E|--------------------------------5-----5-5-----5-5-----5-5-----5-|

G|----7------7----7------7-----------------------|
D|--------------------------------5------5-------|
A|-7-----77----77----77-----7--------------------|
E|-----------------------------5-----55-----5--3-|


Verse:
G|---------------------5--------------|
D|------------------------------------|
A|-----5-------3--5-5----------5----5-|x6
E|--5-----3-3-------------5-5-----5---|

Chorus:
G|----7-------7-----7-------7-------------------------------------|
D|-----------------------------------5-------5-------5-------5----|
A|-7-----7-7----7-7----7-7-----7----------------------------------|
E|--------------------------------5-----5-5-----5-5-----5-5-----5-|

G|----7------7----7------7-----------------------|
D|--------------------------------5------5-------|
A|-7-----77----77----77-----7--------------------|
E|-----------------------------5-----55-----5--3-|


Solo:
G|---------------------5--------------|
D|------------------------------------|
A|-----5-------3--5-5----------5----5-|x4
E|--5-----3-3-------------5-5-----5---|


Verse:
G|---------------------5--------------|
D|------------------------------------|
A|-----5-------3--5-5----------5----5-|x4
E|--5-----3-3-------------5-5-----5---|


Chorus:
G|----7-------7-----7-------7-------------------------------------|
D|-----------------------------------5-------5-------5-------5----|
A|-7-----7-7----7-7----7-7-----7----------------------------------|
E|--------------------------------5-----5-5-----5-5-----5-5-----5-|

G|----7------7----7------7-----------------------|
D|--------------------------------5------5-------|
A|-7-----77----77----77-----7--------------------|
E|-----------------------------5-----55-----5--3-|


Outro:
G|---------------------5--------------|
D|------------------------------------|
A|-----5-------3--5-5----------5----5-|x8
E|--5-----3-3-------------5-5-----5---|

Almost there ...

Sign in to get your own page with links to favourite songs and more. You are just one click away...

Login with Facebook Login with Google