Log in

One click and you are in

Login with Facebook Login with Google

Why sign up and log in

Guitar Tabs Explorer
Tokio Hotel bass tabs for Live every second

Bass tabs

Tokio Hotel - Live every second

e-mail: xcandyrock@gmail.com


tuning: drop C#
Intro
F#|-------------------------|
C#|-------------------------|
G#|-------------------------| x10
C#|-5555555--4-0-0--3-0-0-0-|


VERSE
F#|--------------------------------------------|
C#|--------------------------------------------|
G#|--------------------------------------------| x4
C#|-10-10-10--7--77--10-10-10--7-77--22222222--|

F#|--------------------------------------------|
C#|--------------------------------------------|
G#|--------------------------------------------|
C#|-10-10-10--7--77--10-10-10--7-77------------|


CHORUS
F#|--------------------------------------|
C#|--------------------------------------|
G#|--------------------3333333333333333--|
C#|-555555555-44444444-------------------|

F#|----------------------------------------|
C#|----------------------------000-222-00--|
G#|--------------------3333333-------------|
C#|-555555555-44444444---------------------|

F#|----------------------------------------|
C#|----------------------------000-222-00--|
G#|--------------------3333333-------------|
C#|-555555555-44444444---------------------|

F#|----------------------------------------------------------|
C#|----------------------------------------------------------|
G#|--------------------77777777-55555555-66666666--888-555-8-|
C#|-555555555-44444444---------------------------------------|

POST-CHORUS
F#|-------------------------|
C#|-------------------------|
G#|-------------------------| x2
C#|-5555555--4-0-0--3-0-0-0-|

F#|--------------------------------------------|
C#|--------------------------------------------|
G#|--------------------------------------------|
C#|-10-10-10--7--77--10-10-10--7-77--22222222--|

VERSE
F#|--------------------------------------------|
C#|--------------------------------------------|
G#|--------------------------------------------| x2
C#|-10-10-10--7--77--10-10-10--7-77--22222222--|

F#|----------------------------------------------|
C#|----------------------------------------------|
G#|------------------------------------0-2-0-----|
C#|-10-10-10--7--77--10-10-10--7-77--2-------2-0-|

F#|--------------------------------------------|
C#|--------------------------------------------|
G#|--------------------------------------------|
C#|-10-10-10--7--77--10-10-10--7-77--22222222--|

F#|--------------------------------------------|
C#|--------------------------------------------|
G#|--------------------------------------------|
C#|-10-10-10--7--77--10-10-10--7-77------------|


CHORUS
F#|--------------------------------------|
C#|--------------------------------------|
G#|--------------------3333333333333333--|
C#|-555555555-44444444-------------------|

F#|----------------------------------------|
C#|----------------------------000-222-00--|
G#|--------------------3333333-------------|
C#|-555555555-44444444---------------------|

F#|----------------------------------------|
C#|----------------------------000-222-00--|
G#|--------------------3333333-------------|
C#|-555555555-44444444---------------------|

F#|-------------------------------------------------------|
C#|-------------------------------------------------------|
G#|--------------------77777777-55555555------------0-2-0-|
C#|-555555555-44444444-------------------222222-2-4-------|


BRIDGE
F#|----------------------|
C#|----------------------|
G#|-----------/333-2-222-|
C#|-4-5-555--------------|

F#|----------------------|
C#|----------------------|
G#|-----------/333-2-222-|
C#|-4-5-555--------------|

F#|------------------------------------|
C#|------------------------------------|
G#|-----------/333-2-222-6666666-8-5-8-|
C#|-4-5-555----------------------------|

F#|-------------------------|
C#|-------------------------|
G#|-------------------------| x5
C#|-5555555--4-0-0--3-0-0-0-|


CHORUS
F#|--------------------------------------|
C#|--------------------------------------|
G#|--------------------3333333333333333--|
C#|-555555555-44444444-------------------|

F#|----------------------------------------|
C#|----------------------------000-222-00--|
G#|--------------------3333333-------------|
C#|-555555555-44444444---------------------|

F#|----------------------------------------|
C#|----------------------------000-222-00--|
G#|--------------------3333333-------------|
C#|-555555555-44444444---------------------|


F#|----------------------------------------------------------|
C#|----------------------------------------------------------|
G#|--------------------77777777-55555555-66666666--888-555-8-|
C#|-555555555-44444444---------------------------------------|


OUTRO
F#|-------------------------|
C#|-------------------------|
G#|-------------------------| x9
C#|-5555555--4-0-0--3-0-0-0-|

F#|------------------------------|
C#|------------------------------|
G#|------------------------------|

Almost there ...

Sign in to get your own page with links to favourite songs and more. You are just one click away...

Login with Facebook Login with Google