Log in

One click and you are in

Login with Facebook Login with Google

Why sign up and log in

Guitar Tabs Explorer
The Tokens tabs for The lion sleeps tonight

Guitar tabs

(intro)

e------------------------------
b------------------------------
g------------------------------
d-5--7---9--7--9--10--9--7--5--
a------------------------------
e------------------------------

e------------------------------
b------------------------------
g------------------------------
d-9---0--0--0--0--0------------
a------------------------------
e------------------------------
 (drum roll)
e------------------------------
b------------------------------
g------------------------------
d-5--7---9--7--9--10--9--7--5--
a------------------------------
e------------------------------

e------------------------------
b------------------------------
g------------------------------
d-9---0--0--0--0--0------------
a------------------------------
e------------------------------
(wimoweh)

e------------------------------
b------------------------------
g------------------------------
d-5--7--9--7--9--10--9--7--5---
a------------------------------
e------------------------------

e------------------------------
b------------------------------
g------------------------------
d--7--9--7--5--9--7--12--9--7--
a------------------------------
e------------------------------

e------------------------------
b------------------------------
g------------------------------
d--9--12--10--9--7--5--7--9--7-
a------------------------------
e------------------------------

e------------------------------
b------------------------------
g------------------------------
d--5--9--7------------------------
a------------------------------
e------------------------------
(wimoweh)

(trumpet solo)


e------------------------------
b------------------------------
g------------------------------
d-5--7--9--7--9--10--9--7--5---
a------------------------------
e------------------------------

e------------------------------
b------------------------------
g------------------------------
d--7--9--7--5--9--7--12--9--7--
a------------------------------
e------------------------------

e------------------------------
b------------------------------
g------------------------------
d--9--12--10--9--7--5--7--9--7-
a------------------------------
e------------------------------


e------------------------------
b------------------------------
g------------------------------
d--5--9--7------------------------
a------------------------------
e------------------------------
(wimoweh)

e------------------------------
b------------------------------
g------------------------------
d-5--7---9--7--9--10--9--7--5--
a------------------------------
e------------------------------

e------------------------------
b------------------------------
g------------------------------
d-9---0--0--0--0--0------------
a------------------------------
e------------------------------

e------------------------------
b------------------------------
g------------------------------
d-5--7---9--7--9--10--9--7--5--
a------------------------------
e------------------------------

e------------------------------
b------------------------------
g------------------------------
d-9---0--0--0--0--0------------
a------------------------------
e------------------------------
(wimoweh)
ⓘ Guitar tab for 'The Lion Sleeps Tonight' by The Tokens, a swing band formed in 1955 from Brooklin, NY, US. The Tokens is known for their smooth urban/r&b music.

Almost there ...

Sign in to get your own page with links to favourite songs and more. You are just one click away...

Login with Facebook Login with Google