Guitar Tabs Explorer
Tobuscus guitar tabs for Swing my sword

Swing My Sword tab


Be the first to rate

Swing My Sword tab by Tobuscus

Guitar tabs

Print

Parts: 3 (Guitar 1&2/Bass)


Bass:
G|----------------------------------------------0--------|
D|---------------------------------0-2-2---2--2--2-2-----|
A|---------------------0-2-2---2-2-----------------------|
E|-00-0-0-3--3---3-0-3-----------------------------------|

Bass is behind all other parts ad is never by itself.

Guitar 1:
e|-00-0-0-3--3---3-0-3-5-7-7---7-7-10-12-12---12--12-15-12-12---|
B|--------------------------------------------------------------|
G|--------------------------------------------------------------|
D|--------------------------------------------------------------|
A|--------------------------------------------------------------|
E|--------------------------------------------------------------|

Guitar 1 is the ¨Main¨ part, the lead.

Guitar 2:
e|-----------------------------------------1--1-3-1-1----|
B|-----------------------------1-1-4-6-6-----------------|
G|--------0--0---0---0-4-6-6-----------------------------|
D|-22-2-2----------2-------------------------------------|
A|-------------------------------------------------------|
E|-------------------------------------------------------|

Guitar 2 is the rhythm behind the lead.

Comment this song and these guitar tabs

Do you have corrections, comments on the guitar tabs, thoughts about the song or a message to the author? Write them below.