Guitar Tabs Explorer
Tobuscus guitar tabs for Sideburns

Sideburns tab


Be the first to rate

Sideburns tab by Tobuscus

Guitar tabs

Print

-------------------------------------------------------------------------------
                             SONG NAME - Band Name
-------------------------------------------------------------------------------
Tabbed by:ALEX BEARD
E chord diagramEE-mail:

Tuning:STANDARD
                         REPEATS THROUGH THE WHOLE SONG
e|-----------5-----------5------------6------------6--------------------------------|
B|------6-----------6-------------6------------6------------6-----------------------|
G|--7-----------7--------------7-----------7------------7---------------------------|
D|----------------------------------------------------------------------------------|
A|----------------------------------------------------------------------------------|
E|----------------------------------------------------------------------------------|

e|----------5-------------5--------------3------------3-----------------------------|
B|------6------------6---------------5-----------5------------5---------------------|
G|--5-----------5-----------------5----------5------------5-------------------------|
D|----------------------------------------------------------------------------------|
A|----------------------------------------------------------------------------------|
E|----------------------------------------------------------------------------------|




************************************

| /   slide up
| \   slide down
| h   hammer-on
| p   pull-off
| ~   vibrato
| +   harmonic
| x   Mute note
| b   Bend
| pb  Pre-bend
| br  Bend release
| pbr Pre-bend release
| brb Bend release bend

Comment this song and these guitar tabs

Do you have corrections, comments on the guitar tabs, thoughts about the song or a message to the author? Write them below.