Log in

One click and you are in

Login with Facebook Login with Google

Why sign up and log in

Guitar Tabs Explorer
Toadies tabs for No deliverance

Guitar tabs

Toadies - No Deliverance
Standard Tuning


Verse - Gtr 1
   h          h          h          h
e[-------------------------------------------]
B[-------------------------------------------]
G[-------------------------------------------]
D[-------------------------------------------]
A[-------------------------------------------]
E[-03-5-3-5---03-5-3-5---03-5-3-5---03-5-3-5-]

   h          h          h          h
e[-------------------------------------------]
B[-------------------------------------------]
G[-------------------------------------------]
D[-------------------------------------------]
A[-------------------------------------------]
E[-03-5-3-5---03-5-3-5---03-5-3-5---03-5-3-5-]

   h          h          h          h
e[-------------------------------------------]
B[-------------------------------------------]
G[-------------------------------------------]
D[-------------------------------------------]
A[-------------------------------------------]
E[-03-5-3-5---03-5-3-5---03-5-3-5---03-5-3-5-]

Gtrs 1 & 2
   h          h          h          h
e[-------------------------------------------]
B[-------------------------------------------]
G[-------------------------------------------]
D[-------------------------------------------]
A[-------------------------------------------]
E[-03-5-3-5---03-5-3-5---03-5-3-5---03-5-3-5-]

Verse - Both Gtrs
   h          h          h          h
e[-------------------------------------------]
B[-------------------------------------------]
G[-------------------------------------------]
D[-------------------------------------------]
A[-------------------------------------------]
E[-03-5-3-5---03-5-3-5---03-5-3-5---03-5-3-5-]


cHORUS
   b   b        b     b        b    b       b     b
e[------------------|-------------|-------------|---------]
B[------------------|-------------|-------------|---------]
G[---2---2--5-0---2-|---2-5-2---2-|---2-5-2---2-|---2-5-2-]
D[---2---2--5-0---2-|---2-5-2---2-|---2-5-2---2-|---2-5-2-]
A[---0---0--3-2---0-|---0-3-0---0-|---0-3-0---0-|---0-3-0-]
E[-3---3--------3---|--3-------3--|-3-------3---|-3-------]


Verse - Gtr 1
   h          h          h          h
e[-------------------------------------------]
B[-------------------------------------------]
G[-------------------------------------------]
D[-------------------------------------------]
A[-------------------------------------------]
E[-03-5-3-5---03-5-3-5---03-5-3-5---03-5-3-5-]

   h          h          h          h
e[-------------------------------------------]
B[-------------------------------------------]
G[-------------------------------------------]
D[-------------------------------------------]
A[-------------------------------------------]
E[-03-5-3-5---03-5-3-5---03-5-3-5---03-5-3-5-]


Gtrs 1 & 2
   h          h          h          h
e[-------------------------------------------]
B[-------------------------------------------]
G[-------------------------------------------]
D[-------------------------------------------]
A[-------------------------------------------]
E[-03-5-3-5---03-5-3-5---03-5-3-5---03-5-3-5-]


cHORUS
   b   b        b     b        b    b       b     b
e[------------------|-------------|-------------|-------------|
B[------------------|-------------|-------------|-------------|
G[---2---2--5-0---2-|---2-5-2---2-|---2-5-2---2-|---2-5-2---2-|
D[---2---2--5-0---2-|---2-5-2---2-|---2-5-2---2-|---2-5-2---2-|
A[---0---0--3-2---0-|---0-3-0---0-|---0-3-0---0-|---0-3-0---0-|
E[-3---3--------3---|--3-------3--|-3-------3---|-3-------3---|


    b       b    b       b     b
e[-------------|-------------|-------------|-------------]
B[-------------|-------------|-------------|-------------]
G[---2-5-2---2-|---2-5-2---2-|---2-5-2---2-|---2-5-2---2-]
D[---2-5-2---2-|---2-5-2---2-|---2-5-2---2-|---2-5-2---2-]
A[---0-3-0---0-|---0-3-0---0-|---0-3-0---0-|---0-3-0---0-]
E[--3-------3--|-3-------3---|-3-------3---|-3-------3---]


Bridge
e[----------------|----------------|----------------|----------------|
B[----------------|----------------|----------------|----------------|
G[-5-6-2--55-66-2-|-5-6-2--55-66-2-|-5-6-2--55-66-2-|-5-6-2--55-66-2-|
D[-5-6-2--55-66-2-|-5-6-2--55-66-2-|-5-6-2--55-66-2-|-5-6-2--55-66-2-|
A[-2-3-0--22-33-0-|-2-3-0--22-33-0-|-2-3-0--22-33-0-|-2-3-0--22-33-0-|
E[-2-3-0--22-33-0-|-2-3-0--22-33-0-|-2-3-0--22-33-0-|-2-3-0--22-33-0-|

e[----------------|----------------|----------------|----------------]
B[----------------|----------------|----------------|----------------]
G[-5-6-2--55-66-2-|-5-6-2--55-66-2-|-5-6-2--55-66-2-|-5-6-2--55-66-2-]
D[-5-6-2--55-66-2-|-5-6-2--55-66-2-|-5-6-2--55-66-2-|-5-6-2--55-66-2-]
A[-2-3-0--22-33-0-|-2-3-0--22-33-0-|-2-3-0--22-33-0-|-2-3-0--22-33-0-]
E[-2-3-0--22-33-0-|-2-3-0--22-33-0-|-2-3-0--22-33-0-|-2-3-0--22-33-0-]


Chorus
   b   b        b     b        b    b       b     b
e[------------------|-------------|-------------|---------]
B[------------------|-------------|-------------|---------]
G[---2---2--5-0---2-|---2-5-2---2-|---2-5-2---2-|---2-5-2-]
D[---2---2--5-0---2-|---2-5-2---2-|---2-5-2---2-|---2-5-2-]
A[---0---0--3-2---0-|---0-3-0---0-|---0-3-0---0-|---0-3-0-]
E[-3---3--------3---|--3-------3--|-3-------3---|-3-------]


Verse
   h          h          h          h
e[-------------------------------------------]
B[-------------------------------------------]
G[-------------------------------------------]
D[-------------------------------------------]
A[-------------------------------------------]
E[-03-5-3-5---03-5-3-5---03-5-3-5---03-5-3-5-]


   h          h          h          h
e[-------------------------------------------]
B[-------------------------------------------]
G[-------------------------------------------]
D[-------------------------------------------]
A[-------------------------------------------]
E[-03-5-3-5---03-5-3-5---03-5-3-5---03-5-3-5-]


Verse (Bass Only)
   h          h          h          h
e[-------------------------------------------]
B[-------------------------------------------]
G[-------------------------------------------]
D[-------------------------------------------]
A[-------------------------------------------]
E[-------------------------------------------]

   h          h          h          h
e[-------------------------------------------]
B[-------------------------------------------]
G[-------------------------------------------]
D[-------------------------------------------]
A[-------------------------------------------]
E[-------------------------------------------]


   h          h          h          h
e[-------------------------------------------]
B[-------------------------------------------]
G[-------------------------------------------]
D[-------------------------------------------]
A[-------------------------------------------]
E[-03-5-3-5---03-5-3-5---03-5-3-5---03-5-3-5-]


Bridge
e[----------------|----------------|----------------|----------------|
B[----------------|----------------|----------------|----------------|
G[-5-6-2--55-66-2-|-5-6-2--55-66-2-|-5-6-2--55-66-2-|-5-6-2--55-66-2-|
D[-5-6-2--55-66-2-|-5-6-2--55-66-2-|-5-6-2--55-66-2-|-5-6-2--55-66-2-|
A[-2-3-0--22-33-0-|-2-3-0--22-33-0-|-2-3-0--22-33-0-|-2-3-0--22-33-0-|
E[-2-3-0--22-33-0-|-2-3-0--22-33-0-|-2-3-0--22-33-0-|-2-3-0--22-33-0-|

e[----------------|----------------|----------------|----------------]
B[----------------|----------------|----------------|----------------]
G[-5-6-2--55-66-2-|-5-6-2--55-66-2-|-5-6-2--55-66-2-|-5-6-2--55-66-2-]
D[-5-6-2--55-66-2-|-5-6-2--55-66-2-|-5-6-2--55-66-2-|-5-6-2--55-66-2-]
A[-2-3-0--22-33-0-|-2-3-0--22-33-0-|-2-3-0--22-33-0-|-2-3-0--22-33-0-]
E[-2-3-0--22-33-0-|-2-3-0--22-33-0-|-2-3-0--22-33-0-|-2-3-0--22-33-0-]


cHORUS
   b   b        b     b        b    b       b     b
e[------------------|-------------|-------------|-------------|
B[------------------|-------------|-------------|-------------|
G[---2---2--5-0---2-|---2-5-2---2-|---2-5-2---2-|---2-5-2---2-|
D[---2---2--5-0---2-|---2-5-2---2-|---2-5-2---2-|---2-5-2---2-|
A[---0---0--3-2---0-|---0-3-0---0-|---0-3-0---0-|---0-3-0---0-|
E[-3---3--------3---|--3-------3--|-3-------3---|-3-------3---|


    b       b    b       b     b
e[-------------|-------------|-------------|-------------]
B[-------------|-------------|-------------|-------------]
G[---2-5-2---2-|---2-5-2---2-|---2-5-2---2-|---2-5-2---2-]
D[---2-5-2---2-|---2-5-2---2-|---2-5-2---2-|---2-5-2---2-]
A[---0-3-0---0-|---0-3-0---0-|---0-3-0---0-|---0-3-0---0-]
E[--3-------3--|-3-------3---|-3-------3---|-3-------3---]

I left the bends out of the verse. If you see them live the bends are fairly arbittrary.

Holla - sean@snakeriverdruid.com

Almost there ...

Sign in to get your own page with links to favourite songs and more. You are just one click away...

Login with Facebook Login with Google