Log in

One click and you are in

Login with Facebook Login with Google

Why sign up and log in

Guitar Tabs Explorer
T.N.T. tabs for Tonight im falling

Guitar tabs with lyrics

Song   : Tonight I'm Falling
Album  : Intuition

Tuning : A chord diagramA augmentedA half step lower

Intro
   (Distorted)
A chord diagramEb MajorEb|----------------------------------------------------------------------|
A chord diagramBb majorBb|----------------------------------------------------------------------|
A chord diagramGbGb|----------------------------------------------------------------------|
A chord diagramDbDb|----------------------------------------------------------------------|
A chord diagramAbAb|-0-0---------2-------4---------------0-------2-------4----------------|
A chord diagramEb MajorEb|-----------------------------4-------------------------------4--------|
  |(Clean)
  |-------0-------0-------0-------0-------0-------0-------0-------0------|
  |---------4-------4-------4-------4-------4-------4-------4-------4----|
  |-----------4-------4-------4-------4-------4-------4-------4-------4--|
  |----------------------------------------------------------------------|
  |----------------------------------------------------------------------|
  |----------------------------------------------------------------------|

|---------------------------------------------------------------|
|---------------------------------------------------------------|
|-------------------------------22-2----------------------------|
|-------------------------------22-2----------------------------|
|-0-------2---------------------00-0----------------------------|
|-----------------0-------4-------------------------------------|
|
|---0-------0-------0-------0----------9-5-7--------8-5-7-------|
|-----4-------4-------4-------4--------------9-5----------8-5~--|
|-------4-------4-------4-------4-------------------------------|
|---------------------------------------------------------------|
|---------------------------------------------------------------|
|---------------------------------------------------------------|

Verse
|-------0---------0------------------2-2----------0---------0--------5--------|
|-----5---------5---------5--------4------------5---------5-------------5-----|
|---6---------6---------4---4----5------------6---------6-----------------7---|
|-6---------6---------4---------------------6---------6-----------------------|
|-----------------------------------------------------------------------------|
|-----------------------------------------------------------------------------|


Pre-chorus (Palm mute on the 5th string)
|-----------------------------------------------------------------|
|-----------------------------------------------------------------|
|-6-----6-----6---2-----2-----2---4-----4-----4---5-----5-----5---|
|-6-----6-----6---2-----2-----2---4-----4-----4---5-----5-----5---|
|---4-4---4-4---4---0-0---0-0---0---2-2---2-2---2---3-3---3-3---3-|
|-----------------------------------------------------------------|

|-----------------------------------------------------------------|
|-----------------5---------------4---------------4---------------|
|-6-----6-----6---2---------------2---------------1---------------|
|-6-----6-----6---------------------------------------------------|
|---4-4---4-4---4-------------------------------------------------|
|-----------------------------------------------------------------|


Chorus (Repeat intro) then
|-------------12-----11-----12-----4--------|
|-------------12-----12-----12-----5--------|
|----------------------------------6--------|
|----------------------------------Arpeggio-|
|-0-----2-----4-----------------------------|
|-------------------------------------------|

Repeat verse and chorus

Guitar solo   |-> palm mute <-|
|---------------------------------4h5p4----------------------12--10--|
|-----------------------------------------7-----9-10-12--------------|
|-6------------------6--------6---------6-------pmpm------9----------|
|-6------------6-7-9----6-7-9-----------pm---------------------------|
|-4------------------------------------------------------------------|
|--------------------------------------------------------------------|

(harmony part)
    Push whammy bar
          |
|-7/-8-10-%-14--------14-14------------------------|
|---------|-----------------12-12-14-14-------11---|
|---------|-----------------------------11-11------|
|---------|----------------------------------------|
|---------|----------------------------------------|
|(main part)
|         V
|--------------------------------------------------|
|-9/10-12-%-15--------14-14-------11-11------------|
|---------------------------11-11-------------11---|
|---------------------------------------11-11------|
|--------------------------------------------------|
|--------------------------------------------------|
|--------------------------------------------------|

                                 (play quick)
|-----------------------------9--------9-----------9h12p9-11------16--bh/-\-|
|-11b/--10----------------------9-12b1/--12p9-12b1/-------------------------|
|-----------10----9p7h9-10--------------------------------------------------|
|---------------------------------------------------------------------------|
|---------------------------------------------------------------------------|
|---------------------------------------------------------------------------|

 Tapping trill on 16th fret on the 1st string with a pick in your right hand
 while the left hand holds frets below
|-12---14--14-11-11-12-11-9-9-11-9-8-8-9-8-|
|------------------------------------------|
|------------------------------------------|
|------------------------------------------|
|------------------------------------------|
|------------------------------------------|

 (main part)
         |->        palm mute      <-|
|-8bh/----------------------------------|
|---------9-12----9---------------------|
|--------------11---9-11----9-----------|
|------------------------11---9-11----9-|
|----------------------------------11---|
|---------------------------------------|
|(harmony part)
|-11bh/---9-12----9---------------------|
|--------------12---9-12----9-----------|
|------------------------11---9-11----9-|
|----------------------------------11---|
|---------------------------------------|
|---------------------------------------|

 The last part is too fast for me to copy.  But it's something like this.
 (with palm mute)
|-/10h12p10--9-9-9-10--/12h14p12--11-11-12--/14h15p14--12-12-14-|
|---------------------------------------------------------------|
|---------------------------------------------------------------|
|---------------------------------------------------------------|
|---------------------------------------------------------------|
|---------------------------------------------------------------|

|-/15h17p15--14-14-15--/15h17p15---15----24-------|
|-------------------------------------------------|
|-------------------------------------------------|
|-------------------------------------------------|
|-------------------------------------------------|
|-------------------------------------------------|

Back to pre-chorus then repeat chorus


 * 🏷Legend *
/  = Slide up
\  = Slide down
h  = Hammer-on
p  = Pull-off
~  = Vibrato
PM = Palm Mute
x  = Muted tone
PH = Picking harmonic (Artificial harmonic)
T  = Right hand tapping
.  = Stuccarto
^  = Trill
b / = Bend : ? represents how many steps to bend
        bh/   = Bend a 'half' step
        b1/   = Bend a whole step
        b1.5/ = Bend whole and a half steps
b \ = Release : ? represents how many steps to release.  If no number is
                  present, release it to the original pitch.  This notation
                  could be just '\' as in bh/ \ / for bending, releasing to
                  the original pitch, then bending again


       \\     //        TNT : Tony Harnell   (Lead & Harmony vocals)
        \\   //               Ronni Le Tekro (Guitars, vocals)

Almost there ...

Sign in to get your own page with links to favourite songs and more. You are just one click away...

Login with Facebook Login with Google