Log in

One click and you are in

Login with Facebook Login with Google

Why sign up and log in

Guitar Tabs Explorer
T.N.T. tabs for Listen to your heart

Guitar tabs with lyrics

Song   : Listen To Your Heart
Album  : Tell No Tales

Tuning : A chord diagramA augmentedA half a step lower
Intro (Palm mute on the 5th string)
A chord diagramEb MajorEb|-----------------------------------------------------------------------|
A chord diagramBb majorBb|------------------------------------7---7---9-9---9--10--10-10---10----|
A chord diagramGbGb|----7---7-----9-----9-----7---7-6---7---7---9-9---9---9---9--9----9----|
A chord diagramDbDb|----4---4-----6-----7-----7---7-7--------------------------------------|
A chord diagramAbAb|-x\-------0-0---0-0---0-0---------0---0---0-----0---0---0-----------xx-|
A chord diagramEb MajorEb|-----------------------------------------------------------------------|

|-------------------------------------------------|
|---------------------------------7---7---9-9-----|
|-7---7-----9-----9-----7---7-6---7---7---9-9-----|
|-4---4-----6-----7-----7---7-7-------------------|
|-------0-0---0-0---0-0---------0---0---0---------|
|-------------------------------------------------|
 (|->      harmony part     <-|)
|---------------5------5------7)-----------------------|
|(7------7---------------------------------------------|
|------------------------------------------------ph----|
|---------------0-0----4-4-----------------------2~----|
|--------0-0-------------------------------------------|
|-2-2-------------------------3---------0----3-4-------|
                                            pmpm

Verse
|--------------------------------------------------------|
|--------------------------------------------------------|
|--------------------------------------------------------|
|--------------------------------------------------------|
|-4---2-2------2---4-4------4---2-2------2---4-4------/--|
|-2---0-0------0---2-2------2---0-0------0---2-2------/--|

|---------------------------------------------------------|
|---------------------------------------------------------|
|---------------------------------------------------------|
|-7---7-7---------7---7-7---------7-----7-----------------|
|-5---4-4-5-5-5-5-4---5-5-5-5-5-5-5-----4-----------------|
|---------|>pm <|---------|>pm <|-------------2~----1~----|

|---------------------------------------------------------|
|-10--9-9------9--1010-----10---9-9------9--1010----------|
|-9---9-9------9---9-9------9---9-9------9---9-9----------|
|--------------------------------------------------/7-6---|
|-4---2-2------2---4-4------4---2-2------2---4-4--------7-|
|-2---0-0------0---2-2------2---0-0------0---2-2----------|

|-----------------------------------------------------------------|
|-----------------------------------------------------------------|
|-----------------------------------------------------------------|
|-7---7-7---------7---7-7---------7---7-7---------7---7-7---------|
|-5---4-4-5-5-5-5-4---5-5-5-5-5-5-5---4-4-5-5-5-5-4---5-5-5-5-5-5-|
|---------|>pm <|---------|>pm <|---------|>pm <|---------|>pm <-|

|---------------------------------------------------------|
|---------------------------------------------------------|
|---------------------------------------------------------|
|-7---7-7---------7---7-7---------7-----7-----2-----9-9-9-|
|-5---4-4-5-5-5-5-4---5-5-5-5-5-5-5-----4-----0-----7-7-7-|
|---------|>pm <|---------|>pm <|-------------------------|

Chorus (repeat intro with the next line at the end)

|---------------------|
|---------------------|
|---------------------|
|---------------------|
|------ph---arm down--|
|-2----4----0\--------|

2nd verse
|--------------------------------------------------------|
|--------------------------------------------------------|
|--------------------------------------------------------|
|--------------------------------------------------------|
|-4---2-2------2---4-4------4---2-2------2---4-4------/--|
|-2---0-0------0---2-2------2---0-0------0---2-2------/--|

|----------------------------------------------------------|
|----------------------------------------------------------|
|----------------------------------------------------------|
|-7---7-7---------7---7-7---------7--77--7-----------------|
|-5---4-4-5-5-5-5-4---5-5-5-5-5-5-5--55--4----pm-----------|
|---------|>pm <|---------|>pm <|-------------000--2-2-1~--|

|---------------------------------------------------------|
|-10--9-9------9--1010-----10---9-9------9--1010----------|
|-9---9-9------9---9-9------9---9-9------9---9-9---ph-----|
|--------------------------------------------------/7-6---|
|-4---2-2------2---4-4------4---2-2------2---4-4--------7-|
|-2---0-0------0---2-2------2---0-0------0---2-2----------|

|-----------------------------------------------------------------|
|-----------------------------------------------------------------|
|-----------------------------------------------------------------|
|-7---7-7---------7---7-7---------7---7-7---------7---7-7---------|
|-5---4-4-5-5-5-5-4---5-5-5-5-5-5-5---4-4-5-5-5-5-4---5-5-5-5-5-5-|
|---------|>pm <|---------|>pm <|---------|>pm <|---------|>pm <-|

|---------------------------------------------------------|
|---------------------------------------------------------|
|---------------------------------------------------------|
|-7---7-7---------7---7-7---------7-----7-----2-----9-9-9-|
|-5---4-4-5-5-5-5-4---5-5-5-5-5-5-5-----4-----0-----7-7-7-|
|---------|>pm <|---------|>pm <|-------------------------|


Chorus (repeat the intro and the next line in between)
 (this time....)    1st time       (this time....)                     2nd time
|---------------------------     |-------------------------------------------|
|---------------------10-9--     |---------------------10-9-----------10-9---|
|----------------------9-9--     |----------------------9-9------------9-9---|
|---------------------------     |-------------------------------------------|
|-----------ph--------------     |-----------ph--------------------xx-x/-----|
|------2----4----0----------     |------2----4----0----------0--0------------|arm-up


Guitar solo    |->    palm mute   <-|
|-------------------------------------------11-/15\11/15\11-15-------|
|-13~------------------------13-12-13-16~---13-/16\13/16\13-13-------|
|--------12-15----12---------Tremolo------------------------------ph-|
|--------------15----13-15----picking-----------------------------12-|
|--------------------------------------------------------------------|
|--------------------------------------------------------------------|

|-------------------13c/--13---11-13-15-13-16--10^11-11^12-13c/--13-|
|-------------------15c/--15---13-15-16-15-18--12^13-13^14-15c/--15-|
|-------------------------------------------------------------------|
|-------------------------------------------------------------------|
|-10-10-9-9-----ph--------------------------------------------------|
|-----------6-6-6---------------------------------------------------|
  |>PalmMute <|

|-------------------------------------------------------------------|
|----------------------------------10-12-14----12-14-15----14-15-17-|
|-|-> Palm Mute <-|-------------------------------------------------|
|-10-10-8-8-6-6-5-5---\6-6--\9-9------------------------------------|
|-------------------------------------------------------------------|
|-------------------------------------------------------------------|

                         |->     Hammer-on and pull-off      <-|
|------------------22~---17--14-17-14-12-14-12--9-12-9--12-9-------|
|-15-17-19-b1.5/~--------17--14-17-14-12-14-12--9-12-9--12-9-9-10~-|
|------------------------------------------------------------9-9~--|
|------------------------------------------------------------------|
|------------------------------------------------------------------|
|------------------------------------------------------------------|

|----14b1/-14--12--10-14-12-10-9--12-10-9--10--|
|-10-15b1/-15--14--12-15-14-12-10-14-12-10-12--|
|-9--------------------------------------------|
|----------------------------------------------|
|----------------------------------------------|
|----------------------------------------------|

  |->               Palm mute                 <-|
|--------------------------------------------------12~--|
|-----------------------------------------10-14-12------|
|-------------------------9-13-11-9-11-13---------------|
|---------9-12-11-9-11-12-------------------------------|
|-9-11-12-----------------------------------------------|
|-------------------------------------------------------|

Repeat chorus then finish with this
|---------------|
|---------------|
|---------------|
|---------------|
|------------0--|
|-2-2--4-4-4----|
       pmpmpm


 * 🏷Legend *
/  = Slide up
\  = Slide down
h  = Hammer-on
p  = Pull-off
~  = Vibrato
PM = Palm Mute
x  = Muted tone
PH = Picking harmonic (Artificial harmonic)
T  = Right hand tapping
^  = Trill
b / = Bend : ? represents how many steps to bend
        bh/   = Bend a 'half' step
        b1/   = Bend a whole step
        b1.5/ = Bend whole and a half steps
b \ = Release : ? represents how many steps to release.  If no number is
                  present, release it to the original pitch.  This notation
                  could be just '\' as in bh/ \ / for bending, releasing to
                  the original pitch, then bending again


       \\     //        TNT : Tony Harnell   (Lead & Harmony vocals)
        \\   //               Ronni Le Tekro (Guitars, vocals)

Almost there ...

Sign in to get your own page with links to favourite songs and more. You are just one click away...

Login with Facebook Login with Google