Log in

One click and you are in

Login with Facebook Login with Google

Why sign up and log in

Guitar Tabs Explorer
T.N.T. tabs for Everyones a star

Guitar tabs with lyrics

Artist : TNT
Song   : Everyone's A chord diagramA augmentedA Star
Album  : Tell No Tales

Tuning : A chord diagramA augmentedA half a step lower
   Intro
A chord diagramEb MajorEb|---------------------------------------------------------|
A chord diagramBb majorBb|--------------------8-xx-8-6-----------------------------|
A chord diagramGbGb|----5-3-5--0--3--0--7-xx-7-5---5-3-5--0--3--3-0--3--3-0--|
A chord diagramDbDb|----5-3-5--0--3--0-------------5-3-5--0--3--3-0--3--3-0--|
A chord diagramAbAb|-x\--------------------------------------.-------.-------|
A chord diagramEb MajorEb|---------------------------------------------------------|

|------------------------------------------------------|
|-----------------8-xx-8-6-----------------------------|
|-5-3-5--0--3--0--7-xx-7-5---5-3-5--0---3--3-0-3--0----|
|-5-3-5--0--3--0-------------5-3-5--0---3--3-0-3--0-3--|
|---------------------------------------.------.----3--|
|---------------------------------------------------1--|

 Verse
|-------------------------------6---3---------------------|
|---------66-6------------------6---6--------11---8\6-/8--|
|---------55-5------------------3---5--------10---7\5-/7--|
|-5-------33-3---------------Clean Tone---xx--8---5\3-/5--|
|-5----------------/x\------------------------------------|
|-3--------------------/x\--------------------------------|

|----------------------------------------------------------------------------|
|-6--5----66-6---<5>\-------6--/8-8-8--6--/8-8-8-----------------------------|
|-5--5----55-5------w/-arm--5--/7-7-7--5--/7-7-7--------------------5-3-5--0-|
|-3-------33-3----------&---3--/5-5-5--3--/5-5-5----------------PH--5-3-5--0-|
|--------------------delay--------.-.--------.-.--0-0-0-0-0-0-0-3~-----------|
|-------------------------------------------------|->   PM  <-|--------------|
|
|-------------------------------------------------3--------------------------|
|-------------------------------------------------6--------------------------|
|-------------------------------------------------5--------------------------|
|----------------------------------------Clean tone arpeggio-----------------|
|----------------------------------------------------------------------------|
|----------------------------------------------------------------------------|

 Chorus
|--------------------------------------------------|
|--------8-6---------6\5--5-------------------8-6\-|
|-3--0---7-5----5----5-5--5--5-3-5--0---3--0--7-5\-|
|-3--0----------5------------5-3-5--0---3--0-------|
|---------------3----------------------------------|
|--------------------------------------------------|

|------------------------------------|
|------------------------------------|
|--------------------3--3-0--3--3-0--|
|--------------------3--3-0--3--3-0--|
|-0-0-0-0-0-0-0-00---.-------.-------|
|-|->    PM    <-|-------------------|

|------------------------------------------------------|
|-----------------8-xx-8-6-----------------------------|
|-5-3-5--0--3--0--7-xx-7-5---5-3-5--0--3--3-0--3--3-0--|
|-5-3-5--0--3--0-------------5-3-5--0--3--3-0--3--3-0--|
|--------------------------------------.-------.-------|
|------------------------------------------------------|

|-------------------------------------------------------|
|-----------------8-xx-8-6------------------------------|
|-5-3-5--0--3--0--7-xx-7-5---5-3-5--0-------------------|
|-5-3-5--0--3--0-------------5-3-5--0-----|->  PM <-|---|
|--------------------------------------1--3-1-0-1-0-----|
|---------------------------------------------------1-3-|

 2nd verse
|-----------------------------3------------------|
|-----66-6----6--6--6\--------6-----11---8\6-/8--|
|-----55-5----5--5--5\--------5-----10---7\5-/7--|
|-----33-3----3--3--3\---------------8---5\3-/5--|
|------------------------------------------------|
|------------------------------------------------|

|-----------------------------------------------------------------------|
|-11----\6-----------------8--8---8-8--8--------------------------------|
|-10----\5-----------------7--7---7-7--7----------------------5-3-5--0--|
|--8----\3----3--3--3...---5--5---5-5--5----------------------5-3-5--0--|
|------------w/-Talkbox-------------------00-0-0-0-0-0-0-0-3------------|
|-----------------------------------------|->     PM     <-|------------|

 2nd chorus
|---------------------------------------------------------------|
|--------8-6\--------6\5--5-------------------8-6\--------------|
|-3--0---7-5\---5----5-5--5--5-3-5--0---3--0--7-5\---5--5--5-5--|
|-3--0----------5------------5-3-5--0---3--0---------5--5--5-5--|
|---------------3------------------------------------3--3--3-3--|
|---------------------------------------------------------------|

|----------------------------------------------------------|
|-----------------8-6\--------6\5--5------------------8-6\-|
|-5-3-5--0--3--0--7-5\---5----5-5--5--5-3-5--0--3--0--7-5\-|
|-5-3-5--0--3--0---------5------------5-3-5--0--3--0-------|
|------------------------3---------------------------------|
|----------------------------------------------------------|

|------------------------------------|
|------------------------------------|
|--------------------3--3-0--3--3-0--|
|--------------------3--3-0--3--3-0--|
|-0-0-0-0-0-0-0-00---.-------.-------|
|-|->    PM    <-|-------------------|

 Bass solo
|-------------------------------------------------------------|
|-------------------------------------------------------------|
|-------------------------------------------------------------|
|-------------------------------------------------------0-3-5-|
|------------1--------------1--------------1--------1-3-------|
|-3--3-1-1-3---3-3--3-1-1-3---3-3--3-1-1-3---3-3--3-----------|

  Guitar
|--------------15----15---------------------------------------|
|--------------18b1/-18b1/------------------------------------|
|---------------------------"Everyone's -------3--3-0--3--3-0-|
|----------------------------A Star"-----------3--3-0--3--3-0-|
|---------------------------(Use Talkbox)------.-------.------|
|-------------------------------------------------------------|
|
| Bass
|-------------------------------------------------------------|
|-------------------------------------------------------------|
|-------------------------------------------------------------|
|-------------------------------------------------------------|
|------------1--------------1--------------1---1--1----1--1---|
|-3--3-1-1-3---3-3--3-1-1-3---3-3--3-1-1-3---3------3-------3-|

|----------------------------------------------|
|-|-> pm<-|---------8--8-6----------------3-4--|
|-------3-0-----5---7--7-5------3--3-0-3--2-3--|
|-0-0-3-------------------------3--3-0-3-------|
|-----------5/7--------------------------------|
|----------------------------------------------|

 Guitar solo
|--------11~----------13-\10---------------------13~-|
|-----11(11)~--------x-------11---11-13-11-15-11-----|
|-12--------w/ arm--x-------------|-> w/ Whammy <-|--|
|-13--------------------------------------bar--------|
|----------------------------------------------------|
|----------------------------------------------------|

  Higher part
|----------13----15-13~-------------------PH----------18-20-18--20-22-b1/-20-|
|-------15----15--------------------------6~---11~---x-----------------------|
|----15----------------------12--10------------10~--x------------------------|
|-12----------------------xx-12-----8-\-5------------------------------------|
|-|> pm <|-------------------------------------------------------------------|
|----------------------------------------------------------------------------|
|
| Lower part
|----------10----13-10~------------------------------------------------------|
|-------11----11--------------------------------------15-16-15--16-18-b1/-16-|
|----10----------------------------------------------x-----------------------|
|--8------------------------------------------------x------------------------|
|-|> pm <|-------------------------------------------------------------------|
|----------------------------------------------------------------------------|

Repeat chorus

 CD Time : 3'00
|-15------15-17p15-15~---------------------------------------|
|-18b1/-----------------------15-15-------15-15--------------|
|-----------------------15h17-------15h17--------------------|
|-----------------------|-> Machine Gun Technique - ? ? ? ?--|
|------------------------------------------------------------|
|------------------------------------------------------------|


 * 🏷Legend *
/  = Slide up
\  = Slide down
h  = Hammer-on
p  = Pull-off
~  = Vibrato
PM = Palm Mute
PH = Picking harmonic (Artificial harmonic)
b / = Bend : ? represents how many steps to bend
        bh/   = Bend a 'half' step
        b1/   = Bend a whole step
        b1.5/ = Bend whole and a half steps

       \\     //        TNT : Tony Harnell   (Lead & Harmony vocals)
        \\   //               Ronni Le Tekro (Guitars, vocals)

Almost there ...

Sign in to get your own page with links to favourite songs and more. You are just one click away...

Login with Facebook Login with Google