Log in

One click and you are in

Login with Facebook Login with Google

Why sign up and log in

Guitar Tabs Explorer
T.N.T. tabs for Easy street

Guitar tabs with lyrics

Song   : Easty Street
Album  : Realized Fantasies

Tuning : A chord diagramA augmentedA half step lower
Transcribed by : Paul Virost

     This is another one of my favorites.  A chord diagramA minorAm I making tabs of my
favorite songs only? :)  Anyway, this is an easy song (no fast solos
with lots of machine gun technique :)  I heard that the part of guitar

solo was taken from a Norwegian country song.
Shuffle rhythm

Piano intro, then


Verse
A chord diagramEb MajorEb|------------|---------------|----------------|--------------|
A chord diagramBb majorBb|------------|---------------|----------------|--------------|
A chord diagramGbGb|------------|---------------|----------------|--------------|
A chord diagramDbDb|------------|-5--5----------|----------------|--------5-4---|
A chord diagramAbAb|-3--3-------|---------------|--------2-0-2-3-|-0--0-0-----4-|
A chord diagramEb MajorEb|-------3--3-|-------2-0-2-3-|-0--0-0---------|--------------|

                                              |->  Arpeggio  <-|
|------------|---------------|----------------|----------------|
|------------|---------------|----------------|---5-----5/7----|
|------------|---------------|----------------|------5------5--|
|------------|-5--5----------|----------------|----------------|
|-3--3-------|---------------|--------2-0-2-3-|-0--------------|
|-------3--3-|-------2-0-2-3-|-0--0-0---------|----------------|

|------------|---------------|----------------|--------------|
|------------|---------------|----------------|--------------|
|------------|---------------|----------------|--------------|
|------------|-5--5----------|----------------|--------5-4---|
|-3--3-------|---------------|--------2-0-2-3-|-0--0-0-----4-|
|-------3--3-|-------2-0-2-3-|-0--0-0---------|--------------|

|------------|---------------|----------------|-----------------|
|------------|---------------|----------------|-----------------|
|------------|---------------|----------------|-----------------|
|------------|-5--5----------|----------------|-4-2-0-------0---|
|-3--3-------|---------------|--------2-0-2-3-|-5-3-2-3-2-3-0---|
|-------3--3-|-------2-0-2-3-|-0--0-0---------|-------5-2-3-----|


Chorus
|---|---|---|---|---|---|---|---|---|---|
|---|---|---|---|---|---|---|---|---|---|
|---|-6-|-5-|-2-|---|-6-|-5-|-2-|-5-|-2-|
|-5-|-6-|-5-|-2-|-5-|-6-|-5-|-2-|-5-|-2-|
|-5-|-4-|-3-|-0-|-5-|-4-|-3-|-0-|-3-|-0-|
|-3-|---|---|---|-3-|---|---|---|---|---|

Repeat verse

Guitar solo

|---------------.-----------|--.--15---------|------------------|-----------|
|--.-----------12-----12-13-|-15-----15---12-|-15--13-13-----13-|--12-12----|
|-12-11--12-14----14--------|----------------|------------14----|-----------|
|---------------------------|----------------|------------------|-----------|
|---------------------------|----------------|------------------|-----------|
|---------------------------|----------------|------------------|-----------|

|-> with palm mute                                               <-|
|-------------------------------------|----------------------------|
|-13-15-13----12----12-13-12----------|----12-------------12-13-12-|
|----------14----14----------12-14-12-|-14----14-11-12-12----------|
|-------------------------------------|----------------------------|
|-------------------------------------|----------------------------|
|-------------------------------------|----------------------------|

 (Higher part)                 .
|---------------.-----------|-15--19-15------|------------------|
|--.-----------15-----15-17-|-------------15-|-19--17-17-\13-17-|
|-16-14--16-17----17--------|----------------|------------------|
|---------------------------|----------------|------------------|
|---------------------------|----------------|------------------|
|---------------------------|----------------|------------------|
|                                                               |
|(Lower part)                                                   |
|---------------.-----------|--.--15---------|------------------|
|--.-----------12-----12-13-|-15-----15---12-|-15--13-13-\10-13-|
|-12-11--12-14----14--------|----------------|------------------|
|---------------------------|----------------|------------------|
|---------------------------|----------------|------------------|
|---------------------------|----------------|------------------|

 (Higher part)
|-------------------|---------.--------------|--------------------|
|--15-15---15p13p12-|--------12--------12-13-|--12--------12------|
|-------------------|-12--14----12--14-------|-----14-14------12--|
|-------------------|------------------------|--------------------|
|-------------------|------------------------|--------------------|
|-------------------|------------------------|--------------------|
|
|(Lower part)                                                     |
|-------------------|----------------------.-|--------------------|
|--12-12---10h12p8--|---------------------10-|--------------------|
|-------------------|--9--11-12--9--11-12----|--12-11-11--12---9--|
|-------------------|------------------------|--------------------|
|-------------------|------------------------|--------------------|
|-------------------|------------------------|--------------------|

 (Higher part)
|------------------------------------|---------17-20-19-17-20-19-17-19-20-22b/|
|---------------------------17-20-19-|17-19-20--------------------------------|
|---------16-19-17-16-17-19----------|----------------------------------------|
|16-17-19----------------------------|----------------------------------------|
|------------------------------------|----------------------------------------|
|------------------------------------|----------------------------------------|
|                                                                             |
|(Lower part)                                                                 |
|------------------------------------|---------13-17-15-13-17-15-13-15-17-19b/|
|---------------------------13-17-15-|13-15-17--------------------------------|
|---------12-16-14-12-14-16----------|----------------------------------------|
|12-14-16----------------------------|----------------------------------------|
|------------------------------------|----------------------------------------|
|------------------------------------|----------------------------------------|

|=> with palm mute
|---------------|-------------|----------------|
|---------------|-------------|----------------|
|---------------|-------------|----------------|
|---------------|-------------|----------------|
|------0-3--0---|---------3-0-|-3-0------------|
|--0-3--------0-|-3-5---------|------3---0-3-5-|

|---------------|-------------|-----------------|
|---------------|-------------|-----------------|
|---------------|-------------|-----------------|
|---------------|-------------|-----------------|
|------0-3--0---|---------3-0-|-3-0-------------|
|--0-3--------0-|-3-5---------|------4---0-3-5\-|

|---------------|-------------|----------------|
|---------------|-------------|----------------|
|---------------|-------------|----------------|
|---------------|-------------|----------------|
|------0-3--0---|---------3-0-|-3-0------------|
|--0-3--------0-|-3-5\--------|------3---------|

|----------------|-------------------|---|
|-6--6--x-6-6--6-|-x-6-6--6-x-6-6--6-|---|
|-5--5--x-5-5--5-|-x-5-5--5-x-5-5--5-|-5-|
|-3--3--x-3-3--3-|-x-3-3--3-x-3-3--3-|-5-|
|----------------|-------------------|-3-|
|----------------|-------------------|---|


|---------------------------------|
|---------------------------------|
|-------------2--0-------------0--|
|-4--2--0-----------4--2--0--2----|
|----------3----------------------|
|---------------------------------|
|                                 |
|---------------------------------|
|---------------------------------|
|---------------------------------|
|-------------4--2--0-----------0-|
|----------------------3--2--3----|
|---------------------------------|

Repeat chorus


Outro guitar solo                                 .
|-15----15----15----/19-17--19-22--21-20-19-17----17-17-------------------|
|----17----17----17--- ------------------------20-------20-17-19bh/-19bh/-|
|-------------------------------------------------------------------------|
|-------------------------------------------------------------------------|
|-------------------------------------------------------------------------|
|-------------------------------------------------------------------------|

    |----------|
    |----------|
    |----------|
 ~  |-5--7-5---|
    |----------|
    |----------|


 * 🏷Legend *
/  = Slide up
\  = Slide down
h  = Hammer-on
p  = Pull-off
~  = Vibrato
PM = Palm Mute
x  = Muted tone
.  = Stuccarto
b / = Bend : ? represents how many steps to bend
        bh/   = Bend a 'half' step
        b1/   = Bend a whole step
        b1.5/ = Bend whole and a half steps

Almost there ...

Sign in to get your own page with links to favourite songs and more. You are just one click away...

Login with Facebook Login with Google