Log in

One click and you are in

Login with Facebook Login with Google

Why sign up and log in

Guitar Tabs Explorer
Tlc guitar tabs for No scrubs

Guitar tabs

Tablature by Tim Nevaker
tnevak2@gl.umbc.edu

The whole song is played with the guitar tuned down a
half-step to E-flat.
The opening and verse bars:

e---------1---|--------0---|------------|--------0---|
B-------1-----|------1-----|--------3---|------1-----|
G-----2-------|----2-------|------2-----|----2-------|
D---0---------|------------|----0-------|------------|
A-------------|--0---------|------------|--0---------|
E-------------|------------|--0---------|------------|
e---------1---|--------0---|--------------3-|-----1-0---0---||
B-------1-----|------1-----|--------3-------|---------3-----||
G-----2-------|----2-------|------2---------|---------------||
D---0---------|------------|----0-----------|---------------||
A-------------|--0---------|----------------|-(0)-----------||
E-------------|------------|--0-------------|---------------||


The chorus chords:

| A chord diagramDbm7Dbm7  A chord diagramAbmAbm   | A chord diagramEbmEbm   A chord diagramAbmAbm   ||
| /  /  /  /  | /  /  /  /  ||

The bridge:

| A chord diagramFbFb          | A chord diagramEbmEbm         | A chord diagramAbmAbm         | A chord diagramGbGb          ||
| /  /  /  /  | /  /  /  /  | /  /  /  /  | /  /  /  /  ||

the end.

Other versions of No Scrubs

No scrubsChords
No scrubs (Ver. 2)Chords
No scrubs (Ver. 3)Chords
No scrubs (Ver. 2)Tabs

Almost there ...

Sign in to get your own page with links to favourite songs and more. You are just one click away...

Login with Facebook Login with Google