Log in

One click and you are in

Login with Facebook Login with Google

Why sign up and log in

Guitar Tabs Explorer
Tito And Tarantula chords for After dark

Guitar chords

Tito and Tarantula
After Dark

Tabbed by ludovic.legros@lycosmail.com

Légende: / = Slide


[INTRO]

|---------5----7-----10----7-----5---------------------|
|-----7-------------------------------7-----5----------|
|------------------------------------------------7-----|
|------------------------------------------------------|
|------------------------------------------------------|
|------------------------------------------------------|


[Riff1]

   A chord diagramBB		       A chord diagramA augmentedA

|--------2-----2--------------0------------------------|
|--------4-----4--------------2------------------------|
|--------4-----4--------------2------------------------|
|--------4--------------------2------------------------|
|--2-----2-------------0-------------------------------|
|------------------------------------------------------|

   A chord diagramBB		       A chord diagramA augmentedA

|--------2-----2--------------0------------------------|
|--------4-----4--------------2-/-3-/-2----------------|
|--------4-----4--------------2------------------------|
|--------4--------------------2------------------------|
|--2-----2-------------0-------------------------------|
|------------------------------------------------------|

Repeat this riff a several times then:

[Riff2]

   A chord diagramE MajorE

|--------0-----0-----0-----0-----0---------------------|
|--------0-----0-----0-----0-----0---------------------|
|--------1-----1-----1-----1-----1---------------------|
|--------2-----2-----2-----2-----2---------------------|
|--------2-----2-----2-----2-----2---------------------|
|--0---------------------------------------------------|

   A chord diagramF#F#

|--------2-----2-----2-----2-----2---------------------|
|--------2-----2-----2-----2-----2---------------------|
|--------3-----3-----3-----3-----3---------------------|
|--------4-----4-----4-----4-----4---------------------|
|--------4-----4-----4-----4-----4---------------------|
|--2---------------------------------------------------|

Then back to riff 1
Enjoy.
ⓘ Guitar chords for 'After Dark' by, a female blues artist from Tennessee, United States. was born in 1957.

Almost there ...

Sign in to get your own page with links to favourite songs and more. You are just one click away...

Login with Facebook Login with Google