Guitar Tabs Explorer
Tinie Tempah guitar tabs for Frisky

Frisky tab


Be the first to rate

Frisky tab by Tinie Tempah

Guitar tabs

Print

Drop D chord diagramDD

Ok so i've worked out most of this song, however this was originally written on a synth
so it's pretty hard to get an exact copy on guitar, however, I feel this is a pretty
close rendition

The main riff:


e|---14-14-14-14-14-14---14-14-14-14-14-14---15-15-15-15-15-15-------------------------|
B|-12------------------12------------------12------------------15-14-14-14-14-14-14----|
G|-------------------------------------------------------------------------------------|
D|-------------------------------------------------------------------------------------|
A|-------------------------------------------------------------------------------------|
D|-------------------------------------------------------------------------------------|

Heavy synth bass can be played like this

e|----------------------------------------------------------------------------|
B|----------------------------------------------------------------------------|
G|----------------------------------------------------------------------------|
D|-9-------16--------12--------11---------------------------------------------|
A|-9--X8---16---X8---12---X8---11----X8---------------------------------------|
D|-9-------16--------12--------11---------------------------------------------|


Obviously this won't sound exact, and you can mess about with the strumming patterns to
get a better feel for it, but I felt this was quite a basic introduction to it that if

Other versions of Frisky

- FriskyChords

Comment this song and these guitar tabs

Do you have corrections, comments on the guitar tabs, thoughts about the song or a message to the author? Write them below.