Search tabs and chords

Browse bands and artists

A B C D E F G H I J K L M N O P Q R S T U V W X Y Z #

Log in

[ Register here | Forgot password ]

Guitar Tabs Explorer
Print

Guitar chords with lyrics

Gas Station Gus chords by Tingsek

  • Tuning: Standard
Special chords used:
  Am7    Am6     Cmaj7
e|-3-|  e|-2-|  e|-0-|
B|-1-|  B|-1-|  B|-0-|
G|-2-|  G|-2-|  G|-0-|
D|-2-|  D|-2-|  D|-2-|
A|-0-|  A|-0-|  A|-3-|
E|---|  E|---|  E|---|

Further, a chord written as X* refers to the bar chord starting with the bass note on the A string

During the intro and verse, pluck the following pattern:
e|--------------------------|--------------------------|--------------------------|--------------------------|
B|---8-----8-----8-----8----|---7-----7-----7-----7----|---5-----5-----4-----4----|---5-----5-----5-----5----|
G|-----5-----5-----5-----5--|-----5-----5-----5-----5--|-----4-----4-----2-----2--|-----4-----4-----4--------|
D|-7-----7-----7-----7------|-7-----7-----7-----7------|-5-----5-----4-----4------|-5-----5-----5-----5---5--|
A|--------------------------|--------------------------|--------------------------|--------------------------|
E|--------------------------|--------------------------|--------------------------|--------------------------|



Intro
Am7  Am6  C  B7  Em


Verse 1
        Am7                Am6
I press play and there's us    I guess around 15
         C     B7       Em
You'd be Gas station Gus, Peter, Paul and Gene
             Am7                Am6
Our laughter looped on to an old tape, you'd break
Our laughter looped on to an old tape, you'd break
           C         B7     Em
To make it sound more true, dirty and less fake


Pre-chorus 1
         Am7         Am6
I really miss you
         C          B7   Em
I really miss you
           Am7     Am6               C          B7    Em
All the commotion       and creative devotion

Chorus
                        Em* D* Cmaj7    Cm*                  G
All the things we would do           if you were here to
                        Em* D* Cmaj7
All the things we would do
     Am              Bm             C
We'd form a band and brag about its breakthrough
      Am       Bm                  C
You'd ask me to dumb it down and I'd laugh at you
Verse 2
                    Am7          Am6
And it never really mattered how fucked up things could be
             C   B7         Em
You'd find a way somehow to cheat reality
            Am7               Am6
You made me believe in things I didn't know exist
                 C     B7         Em
Things that were there all along on your 'to do list


Pre-chorus
         Am7         Am6
I really miss you
         C          B7   Em
I really miss you
        Am7          Am6
Hum hum hum hum-hum
             C       B7    Em
And creative devotion
Chorus
                        Em* D* Cmaj7    Cm*                  G
All the things we would do           if you were here to
                        Em* D* Cmaj7
All the things we would do
   Am              Bm             C
We'd form a band and brag about its breakthrough
    Am       Bm                    C
You'd ask me to dumb it down and I'd laugh at you
This piano riff is played during the outro
e|------------------------|-------------------6-5--|------------------------|------------------------|
B|-----6-8----------------|---------------6-8------|-----6-8----------------|--------------6-8-------|
G|-7-8-----7--------------|-------------8----------|-7-8-----7--------------|------------8-----7-5-4-|
D|------------------------|------------------------|------------------------|------------------------|
A|------------------------|------------------------|------------------------|------------------------|
E|------------------------|------------------------|------------------------|------------------------|


Bridge
Mm -- Hum Hu-hu

Cm* D#*  Gm* F*
Cm* Em*  Fm* F* G*

Outro
Cm*         D#*
Oh oh oh oh oh
         Gm*  F*
Oh oh oh oh - oh
Cm*         Em*  Fm*
Oh oh oh oh oh
         F*        G*
Oh oh oh oh - oh - oh

Comments

Tingsek guitar chords for Gas station gus