Log in

One click and you are in

Login with Facebook Login with Google

Why sign up and log in

Guitar Tabs Explorer
Timoria tabs for Senza vento

Guitar tabs

RIFF 1:
  A chord diagramE5E5              A chord diagramA5A5
e---------------------------------------------------
b---------------------------------------------------
g-----------------2-2-0-2-0-------------------------
d-2-2--2-2--------2-2-0-2-0-------------------------
a-2-2--2-2--------0-0-0-0-0-------------------------
e-0-0--0-0------------------------------------------
RIFF 2:
  A chord diagramB5B5               A chord diagramC5C5             x4
e-----------------------------------|---------------
b-----------------------------------|---------------
g-----4-----4---4------5-----5---5--|--7-7-7--------
d-----------------------------------|--7-7-7--------
a-2-2---2-2---2----3-3---3-3---3----|--5-5-5--------
e-----------------------------------|---------------


RIFF 3:
  A chord diagramE5E5              A chord diagramA5A5        A chord diagramC5C5        D5C5D5C5
e---------------------------------------------------
b---------------------------------------------------
g--------------2-2-0-2-0----5-5--5-5--7-7-5-5-5-----
d-2-2--2-2-----2-2-0-2-0----5-5--5-5--7-7-5-7-5-----
a-2-2--2-2-----0-0-0-0-0----3-3--3-3--5-5-3-5-3-----
e-0-0--0-0------------------------------------------

  A chord diagramE5E5              A chord diagramA5A5        A chord diagramE5E5           A chord diagramD MajorD
e----------------------------------------2----------
b----------------------------------------3----------
g--------------2-2-0-2-0-----------------2----------
d-2-2--2-2-----2-2-0-2-0-----2-2--2-2----0----------
a-2-2--2-2-----0-0-0-0-0-----2-2--2-2---------------
e-0-0--0-0-------------------0-0--0-0---------------

END RIFF:
  A chord diagramE5E5           =20
e---------------------------------------------------
b---------------------------------------------------
g---------------------------------------------------
d-2-2-2---------------------------------------------
a-2-2-2---------------------------------------------
e-0-0-0---------------------------------------------

SOLO

e------7---7---7---7---7---------------------------------
b--1/8---8---8---8---8---8--8-10h--8p----8-------8-8-8---
g-------------------------------------9------9---------9-
d--------------------------------------------------------
a--------------------------------------------------------
e--------------------------------------------------------


------------------------------------------------------------------
-8-10h-/11-/12--12-13-15-13-12-13h-12p----------------------------
---------------------------------------14--12--11--12--14--12-11v-
------------------------------------------------------------------
------------------------------------------------------------------
------------------------------------------------------------------

--------------------15--------12-15-12----------------------------
-12-13-15-13-12-15b____-15b------------15-12----------------------
---------------------------------------------14b14br-12p----------
---------------------------------------------------------14-------
------------------------------------------------------------------
------------------------------------------------------------------

SONG STRUCTURE

RIFF1     10x
RIFF2      1x
RIFF3      1x

RIFF1      8x
RIFF2      1x
RIFF3      1x

RIFF1      1x

SOLO
RIFF3      1x
END RIFF


If you got any question or comment please email me
bindavide@infinito.it

Other versions of Senza Vento

Senza ventoChords
Senza vento - soloTabs

Almost there ...

Sign in to get your own page with links to favourite songs and more. You are just one click away...

Login with Facebook Login with Google