Log in

One click and you are in

Login with Facebook Login with Google

Why sign up and log in

Guitar Tabs Explorer
Time Laspe Consortium tabs for Patrollin

Guitar tabs with lyrics

Time Lapse Consortium - Partollin'
Tabbed mostly by: Zachary Caplan <mindgam3r@earthlink.net>
Helped by: Oliver Wood
 
This has to be one of the greatest CDs of all time, and this is my
favorite
guitar track off it. It needs a little wah pedal but you can get away
without it. The bridge is mostly instrument but there are a few guitar
parts in there that were beyond me but the rest is as follows. I
apologize for any errors but there don't seem to be any other tabs out
there for any TLC songs, so deal. Enjoy!
 
---------------------------------------------------------------------------
Part 1
E--------------------------------------------------------------------------
B----------------------------------------------------------9-(6)-----------
G-----------------------------------------------8p6---6--------------------
D---66778----------66778----------66778-------------8----8-----------------
A----------------------------------------6-6-6-----------------------------
E----------6-6-6----------9-9-9--------------------------------------------
 
The second time play the 6 instead of the 9 and the fourth time don't
play
anything there
 
 
 
Part 2
E-------------------------------6666----------------------------------9999-
B------9-9---------------9-9----6666---------9-9---------------9-9----9999-
G------7-7---6h8-6-------7-7-----------------7-7---6h8-6-------7-7---------
D-6h8--8-8----------6h8--8-8------------6h8--8-8----------6h8--8-8---------
A--------------------------------------------------------------------------
E--------------------------------------------------------------------------
 
 
 

Part 3
E--------------------------------------------------------------------------
B---------------------9-9-----------------------8-8-8----------------------
G----8p6------8p6-----7-7------8p6------8p6-----6-6-6----------------------
D--------8p6------8p6-8-8----------8p6------8p6-8-8-8----------------------
A--------------------------------------------------------------------------
E--------------------------------------------------------------------------
 
 
 
Part 4
E--------------------------------------------------------------------------
B--------------------------------------------------------------------------
G----8p6-------------------------------------------------------------------
D--------8p6---------------------------------------------------------------
A------------8p6-4--66-4--66-4--66-4--6-4----------------------------------
E------------------------------------------6-4-6---------------------------
 

Part 5
E--------------------------------------------------------------------------
B--------------------------------------------------------------------------
G--------------------------------------------------------------------------
D-----------------------------5--------------------------------------------
A---------------------------4---4------------------------------------------
E--------44-6---44-6---44-6--------6---44-6---44-6---44-6--334455-6--------
 
 
 
 
 
 
 
Part 1 x4
Part 2 x3
Part 3 x4
Part 2 x3
*pause*
Part 3 x3
Part 4 x1
Part 5 x2
*bridge*
Part 2 x lots
Part 4 x1 slow down and hold last note
 

If you figure out the bridge or find any mistakes, please e-mail me with
them.
 
Zachary Caplan
mindgam3r@earthlink.net
 

Almost there ...

Sign in to get your own page with links to favourite songs and more. You are just one click away...

Login with Facebook Login with Google