Log in

One click and you are in

Login with Facebook Login with Google

Why sign up and log in

Guitar Tabs Explorer
Justin Timberlake guitar tabs for What goes around

Guitar tabs

Tabbed & Arranged by: Josh Daley
Tuning: A chord diagramE MajorE A chord diagramA majorA A chord diagramD MajorD A chord diagramG MajorG A chord diagramBB A chord diagramE MajorE (Standard)

Intro:
e|-------------------|
B|-------------------|
G|--2-0-2------------| x3
D|--------2^3^2-0--0-|
A|-------------------|
E|-------------------|

e|-------------------|
B|-------------------|
G|--2-0-2-2-0-2-0-2--|
D|-------------------|
A|-------------------|
E|-------------------|

Verse:
e|--------------------0-------------------------------|
B|---------1------------3--3-------0------------------|
G|------2-----------0------------0----2--2------------|
D|----2-----------2------------0----------------4-----|
A|--0-----------3-----------------------------5-------|
E|---------------------------3------------------------|

Pre-chorus/Chorus/Outro:
e|--0--------0--------3--------2---^3^2-|
B|--1--------1---^3^1-0--------3--------|
G|--2--------0--------0--------2--------|
D|--2--------2--------0--------0--------|
A|--0--------3--------2-----------------|

Other versions of What Goes Around

What goes aroundChords
What goes aroundTabs

Almost there ...

Sign in to get your own page with links to favourite songs and more. You are just one click away...

Login with Facebook Login with Google