Search tabs and chords

Search for song, artist or band

Log in

One click and you are in

Login with Facebook Login with Google

Why sign up and log in

Guitar Tabs Explorer
Justin Timberlake guitar tabs for What goes around

Guitar tabs with lyrics

Tabbed by: the James


Intro: try picking near the bridge to get that sitar sound
   (Played 3 times)          (After the third time play this)
e|--5p3h5----------------||--5p3--5-5p3--5-5p3---||
B|--------5-5p3-----3----||----------------------||
G|----------------------o||----------------------||
D|----------------------o||----------------------||
A|-----------------------||----------------------||
E|-----------------------||----------------------||

(After playing the whole intro through twice, the main part kicks in)


Verse

 (This is like     (Starts w/ a
  an E chord diagramEE chord up     Cmaj chord diagramCmajCmaj barre
  a string)         chord)
e|--------------|-----------------------------------------||
B|--------(1)---|----------(5)---3---(3)-----4-2-0-(2)----||
G|------2-------|--------5---------5-------5-------------o||
D|----2---------|------5---------------------------------o||
A|--0-----------|----3------------------------------------||
E|--------------|-----------------------------------------||

Just repeat the verse part a bunch of times before going back to the intro.  I'm not really sure how many times so you'll have to listen for the number (you're prolly gonna have to listen for the rhythms anyway).  Feel free to email me w/ questions and revisions.

*Disclaimer*  This tab is meant to be used as a teaching device and is not for resale, so all you NMPA and MPAA @#$&% can shove it.

ENJOY

| /  slide up
| \  slide down
| h  hammer-on
| p  pull-off
| ~  vibrato
| +  harmonic
| x  Mute note
| () Let note ring

Other versions of What Goes Around

What goes aroundChords
What goes aroundTabs

Almost there ...

Sign in to get your own page with links to favourite songs and more. You are just one click away...

Login with Facebook Login with Google