Log in

One click and you are in

Login with Facebook Login with Google

Why sign up and log in

Guitar Tabs Explorer
Justin Timberlake guitar tabs for True colors (Ver. 2)

Intro

Intro:
   A chord diagramA minorAm       A chord diagramG/BG/B        A chord diagramC majorC         A chord diagramFF
e|-3-------|-3-----3-|---------|--------|
B|---0h1---|---0h1---|----0h1--|-1-0h1--|
G|-------0-|---------|---0-----|-2----2-|
D|---------|---------|--2------|-3------|
A|-0-------|-2-------|-3-------|--------|
E|---------|---------|---------|--------|

   A chord diagramA minorAm       A chord diagramG/BG/B        A chord diagramC majorC       A chord diagramFF (ring)
e|-3-----3-|-3-------|-------|---------|
B|---0h1---|---0h1---|----1--|--1------|
G|---------|-------0-|---0---|--2------|
D|---------|---------|--2----|--3------|
A|-0-------|-2-------|-3-----|---------|
E|---------|---------|-------|---------|

Other versions of True Colors

True colorsChords
True colors ukuleleChords
True colorsTabs

Almost there ...

Sign in to get your own page with links to favourite songs and more. You are just one click away...

Login with Facebook Login with Google