Search tabs and chords

Search for song, artist or band

Log in

One click and you are in

Login with Facebook Login with Google

Why sign up and log in

Guitar Tabs Explorer
Justin Timberlake guitar tabs for Say something

Intro

  • Capo on 3rd
Tuning: Standard (E chord diagramEE A chord diagramAA D chord diagramDD G chord diagramGG B chord diagramBB E chord diagramEE)

Key: Cm chord diagramCmCm

Difficulty: Novice

Intro:

 Count:
  1   &   2   &   3   &   4   &    1   &   2   &   3   &   4   &

  Am chord diagramAmAm                               C chord diagramCC
e|/5----------------------5---3---|0-----------------------0-------|
B|--------------------------------|----------------------------3---|
G|--------------------------------|--------------------------------|
D|--------------------------------|--------------------------------|
A|--------------------------------|--------------------------------|
E|--------------------------------|--------------------------------|

  G chord diagramGG                                D chord diagramDD
e|/3------0-------0-------0-------|--------------------------------|
B|------------3-------3-----------|--------------------------------|
G|--------------------------------|2-------------------------------|
D|--------------------------------|--------------------------------|
A|--------------------------------|--------------------------------|
E|--------------------------------|--------------------------------| 2x

  Am chord diagramAmAm                               C chord diagramCC
e|------------7/8-----------------|--------------------------------|
B|--------------------------------|--------------------------------|
G|------------4/5-------------4-5-|7-----------7/9-----9/12--------|
D|--------------------------------|--------------------------------|
A|--------------------------------|--------------------------------|
E|--------------------------------|--------------------------------|

  G chord diagramGG                                D chord diagramDD
e|--------------------------------|--------------------------------|
B|--------------------------------|--------------------------------|
G|--------------------------------|--------------------------------|
D|--------------------------------|--------------------------------|
A|--------------------------------|--------------------------------|
E|--------------------------------|--------------------------------| 2x

***********************************

/ = slide up

***********************************

Other versions of Say Something

Say somethingChords

Almost there ...

Sign in to get your own page with links to favourite songs and more. You are just one click away...

Login with Facebook Login with Google