Log in

One click and you are in

Login with Facebook Login with Google

Why sign up and log in

Guitar Tabs Explorer
Justin Timberlake guitar tabs for Like i love you

Guitar tabs with lyrics

Tab for Like I Love You by Justin Timberlake
	By Alex Mckenzie - alsuperior@aol.com

Finally, i decided to show a much more complete and correct version of the tab
to the world. remember - a nice NYLON string classical acoustic.
Intro and verses and under the rapping. N.E.R.D (pumping the deck and such-like)

E--2--2-2-2-------------------------------------------------------------------|
B--3--3-3-3-------------------------------------------------------------------|
G--4--4-4-4--------4-4-4--5--2------------------------------------------------|
D--4--4-4-4-- x3 --4-4-4--5--2------------------------------------------------|
A--2--2-2-2--------2-2-2--3--0------------------------------------------------|
E-----------------------------------------------------------------------------|
                   Don't include the minor 3rd on these chords
                   Sounds worse than pissflaps if you do.


The bit underneath the chorus, I think with really high (I JUST WANNA LOVE U
BABY!!)

E-10-----9-------2------- ----------------------------------------------------|
B-12-----10------3------- ----------------------------------------------------|
G-11-----9-------2------- ----------------------------------------------------|
D-12-----11------4------- ----------------------------------------------------|
A-10-----9-------2-------4----------------------------------------------------|
E-----------------------------------------------------------------------------|
  A chord diagramGmaj7Gmaj7  F#min7  Bmin7   c#something

When it pulls off, it definitely plays a chord with A chord diagramC#C# in the bass, BUT alas
I couldn't work it out. It's another one of those jazzy-esque chords, but I
couldn't define which. Sorry. If I had to hazard a guess, I'd say it was close
to one of these:

E-4---------------------------------------------------------------------------|
B-6--6--12-9------------------------------------------------------------------|
G-4--5--11-10-----------------------------------------------------------------|
D-6--3--9--9------------------------------------------------------------------|
A-4--4--11-11-----------------------------------------------------------------|
E-------9--9------------------------------------------------------------------|

then the immense bit with the nice synth sound:
u can play it at either octave - i prefer low.

E-------------------------12-13--------12-------------------------------------|
B-------------------12-13--------12-13----12----------------------------------|
G-----5-6-----5---or----------------------------------------------------------|
D-4-5-----4-5---4-------------------------------------------------------------|
A-----------------------------------------------------------------------------|
E-----------------------------------------------------------------------------|
 Yeah, so sorry about not knowing the final chord leading back into the Bm,
but, it would be incredibly helpful if u emailed me with the answer if you
know/find out what it is. comments welcome. enjoy!

Other versions of Like I Love You

Like I love youChords

Almost there ...

Sign in to get your own page with links to favourite songs and more. You are just one click away...

Login with Facebook Login with Google