Search tabs and chords

Search for song, artist or band

Log in

One click and you are in

Login with Facebook Login with Google

Why sign up and log in

Guitar Tabs Explorer
Justin Timberlake bass tabs for Filthy

Bass tabs

Intro:
G|---------------------------------------------------------------------------|
D|-----5--6--8---------------------------------------------------------------|
A|---4----------7-6-5--------------------------------------------------------|
E|---------------------------------------------------------------------------|
B|---------------------------------------------------------------------------|

G|---------------------------------------------------------------------------|
D|-----5--6--8---------------------------------------------------------------|
A|---4----------7-6-5--------------------------------------------------------|
E|---------------------------------------------------------------------------|
B|---------------------------------------------------------------------------|

G|---------------------------------------------------------------------------|
D|-----5--6--8---------------------------------------------------------------|
A|---4----------7-6-5--------------------------------------------------------|
E|---------------------------------------------------------------------------|
B|---------------------------------------------------------------------------|

G|-----------------|----------------------------------------------------------|
D|-----------------|----------------------------------------------------------|
A|-4-4-4-4-4-4-4-4-|-6-6-6-6-6-6-6-6-6-6-6------------------------------------|
E|-----------------|----------------------------------------------------------|
B|-----------------|----------------------------------------------------------|

Verse Main Riff: starts 0:47
G|--------4-h-5--4-h-5--------------------------------------------------------|
D|----6-----------------------------------------------------------------------|
A|--6-----------------------4-------4----------6------6-----------------------|
E|-4--------------------------------------------------------------------------|
B|---------------------2--------2---------4-------4---------------------------|

  Chorus Riff:
G|--------4-h-5--4-h-5--------------------------------------------------------|
D|----6-----------------------------------------------------------------------|
A|--6-----------------------4-------4----------6------6-----------------------|
E|-4--------------------------------------------------------------------------|
B|---------------------2--------2---------4-------4---------------------------|

Bridge: 2:46
G|---------------------------------------------------------------------------|
D|---5-6--8------------------------------------------------------------------|
A|-4---------7-6-5-----------------------------------------------------------|
E|---------------------------------------------------------------------------|
B|---------------------------------------------------------------------------|

G|---------------------------------------------------------------------------|
D|---5-6--8------------------------------------------------------------------|
A|-4---------7-6-5-----------------------------------------------------------|
E|---------------------------------------------------------------------------|
B|---------------------------------------------------------------------------|

G|---------------------------------------------------------------------------|
D|---5-6--8------------------------------------------------------------------|
A|-4---------7-6-5-----------------------------------------------------------|
E|---------------------------------------------------------------------------|
B|---------------------------------------------------------------------------|

G|-------------------|--------------------------------------------------------|
D|-------------------|--------------------------------------------------------|
A|-4-4-4-4-4-4-4-4-4-|-6-6-6-6-6-6-6-6-6-6-6-6-6-6----------------------------|
E|-------------------|--------------------------------------------------------|
B|-------------------|--------------------------------------------------------|

Ending Verses: 3:30 Play periodically
G|---------------------------------------------------------------------------|
D|---------------------------------------------------------------------------|
A|----4-------4----------6---------6-----------------------------------------|
E|---------------------------------------------------------------------------|
B|-2------2---------4---------4----------------------------------------------|

Outro: 3:49
G|----------------------------------------------------------------------------|
D|---------6-6-6-6---------6-6-6-6--------------------------------------------|
A|-----6-------———-6----------------------------------------------------------|
E|---6------------——-6--------------------------------------------------------|
B|----------------------------------------------------------------------------|


************************************

| h   Hammer-on

Almost there ...

Sign in to get your own page with links to favourite songs and more. You are just one click away...

Login with Facebook Login with Google