Search tabs and chords

Search for song, artist or band

Log in

One click and you are in

Login with Facebook Login with Google

Why sign up and log in

Guitar Tabs Explorer
Justin Timberlake guitar tabs for Cry me a river

Guitar tabs with lyrics

This is Rene Valdiviezo
hope u like it
its my 3rd tab
ive sent various intros you can use. each one sounds right.
The 4th one I recommend.
Intro 1
e|---------5---------------------------|
B|--------5-----------3----------------|
G|--2-4-5-----------4------------------|
D|------------2-4-5--------------------|
A|-------------------------------------|
E|-------------------------------------|

Intro 2
e|---------5---------3---------------|
B|-------5----------3----------------|
G|-2-4-5--------2-4------------------|
D|------------2----------------------|
A|-----------------------------------|
E|-----------------------------------|

Intro 3
e|-----------------------------------------|
B|---------5----------2-4------------------|
G|-2-4-5-7------2-4-5----------------------|
D|-----------------------------------------|
A|-----------------------------------------|
E|-----------------------------------------|

INTR0 4 (I PREFER USING THIS ONE)
e|-----------------------------------------|
B|--------3-5---------------------------|
G|-2-4-5-------------2-4----------------|
D|-------------2-4-5--------------------|
A|--------------------------------------|
E|--------------------------------------|

RIGHT WHEN THE VERSE BEGINS PLAY A chord diagramAA SECOND GUITAR SHOULD PLAY THIS FOR THE REST
OF THE SONG. IT SHOULD SOUND IDENTICAL TO HIS VOICE WHEN HE SINGS "YOU DONT
HAVE TO SAY WHAT YOU DID"
e|---------------------------------------------------------------------|
B|---------------------------------------------------------------------|
G|---------------------------------------------------------------------|
D|-----------------------------------------6---------------------------|
A|-------------4-6---7-6-4--4-7-6-4--7-6-4-----------------------------|
E|-------4-6-7---------------------------------------------------------|

WHICH EVER INTRO YOU CHOOSE PLAY IT THROUGHT OUT THE WHOLE SONG UNTIL HE
STARTS SINGING "CRY ME RIVER..." THEN PLAY THIS 4X UNTIL THE VERSE STARTS AGAIN.
e|--------------------------------------------------------------------|
B|-------3-5-3-----5-4-2----------------------------------------------|
G|-2-4-5-------5-2----------------------------------------------------|
D|--------------------------------------------------------------------|
A|--------------------------------------------------------------------|
E|--------------------------------------------------------------------|

THATS PRETTY MUCH IT ENJOY PLAYING ALONG TO THIS WITH A chord diagramAA FRIEND OR BY
YOURSELF
SOUNDS BETTER WITH A chord diagramAA FRIEND THOUGH!

Other versions of Cry Me A River

Cry me a riverChords
Cry me a river (Ver. 2)Tabs

Almost there ...

Sign in to get your own page with links to favourite songs and more. You are just one click away...

Login with Facebook Login with Google