Search tabs and chords

Search for song, artist or band

Log in

One click and you are in

Login with Facebook Login with Google

Why sign up and log in

Guitar Tabs Explorer
Justin Timberlake bass tabs for Cant stop the feeling

Can't Stop The Feeling bass tab by Justin Timberlake

Justin Timberlake bass tabs for Cant stop the feeling

Bass tabs

Verse 1:

 0:25
G|-----------------5----------------------------------------------------------|
D|-------------5-7-----------------7\1----------------------------------------|
A|--3--3--3----------------------------------------------1--------------7\5---|
E|---------------------5-5-5-5------------1--1--1----1-3------5-5-5-5---------|
Pre-chorus:

0:25
G|-------------------------------------------------------------------------------|
D|-------------------------------------------------------------------------------|
A|-3-------3---3---------3---------3---3-----1-----1---1--------------------1-1-1|
E|-----3-5---5-------3-5-------3-5---5---------1-3---3-----1--1--1--1--1--1------|


Chorus:

 0:59
G|-----------------5----------------------------------------------------------|
D|-------------5-7-----------------7\1----------------------------------------|
A|--3--3--3----------------------------------------------1--------------7\5---|
E|---------------------5-5-5-5------------1--1--1----1-3------5-5-5-5---------|


Verse 2:

 1:42
G|-----------------5----------------------------------------------------------|
D|-------------5-7-----------------7\1----------------------------------------|
A|--3--3--3----------------------------------------------1--------------7\5---|
E|---------------------5-5-5-5------------1--1--1----1-3------5-5-5-5---------|


Pre-chorus:

1:59
G|-------------------------------------------------------------------------------|
D|-------------------------------------------------------------------------------|
A|-3-------3---3---------3---------3---3-----1-----1---1--------------------1-1-1|
E|-----3-5---5-------3-5-------3-5---5---------1-3---3-----1--1--1--1--1--1------|


Chorus - Break(Bass only)-Chorus:

 2:16 - 3:44
G|-----------------5----------------------------------------------------------|
D|-------------5-7-----------------7\1----------------------------------------|
A|--3--3--3----------------------------------------------1--------------7\5---|
E|---------------------5-5-5-5------------1--1--1----1-3------5-5-5-5---------|



************************************
 /   Slide up
 \   Slide down

Almost there ...

Sign in to get your own page with links to favourite songs and more. You are just one click away...

Login with Facebook Login with Google