Log in

One click and you are in

Login with Facebook Login with Google

Why sign up and log in

Guitar Tabs Explorer
Santa Tierra tabs for Cancion del pirata parte 2

Cancion Del Pirata Parte 2 tab by Santa Tierra

Santa Tierra tabs for Cancion del pirata parte 2

Guitar tabs

|------------------------|
|---------------6--------|
|-----------7-----7-7----|
|---------7---7----7-----|
|-------5-------------5--|
|------------------------|
     repeat 4 veses


solo acustic
|-----------------------------------------------|
|------------5/6-5-3-5--6-8/6-5-----------6/5----|
|-----7--5/7--------------------7/5-7--9/5----7/5|
|------------------------------------------------|
|------------------------------------------------|
|------------------------------------------------|

|------------------------------------------------------------|
|-----6-8/6-5------------------------5/6/5-------------------|
|------------7/5--9-9/10-9-7/5-7-5/7-------7/5-3-3/5-3/2-7/9|
|------------------------------------------------------------|
|------------------------------------------------------------|
|------------------------------------------------------------|

Almost there ...

Sign in to get your own page with links to favourite songs and more. You are just one click away...

Login with Facebook Login with Google