Log in

One click and you are in

Login with Facebook Login with Google

Why sign up and log in

Guitar Tabs Explorer
Thurl Ravenscroft bass tabs for Youre a mean one mr grinch

You're A Mean One Mr Grinch bass tab by Thurl Ravenscroft

Thurl Ravenscroft bass tabs for Youre a mean one mr grinch

Bass tabs

🎄 ❄ Intro:

G|--------------------------------------|
D|--------------------------------------|
A|----1-0---4-------1-0--4--------------|
E|---2----3----2---2---3----2-----------|

x2:

Verses:

G|--------------------------------------|
D|--------------------------------------|
A|1----3--5-------------1----5--3-------|
E|------------2-------------------------|

G|--------------------------------------|
D|------0----------1------------4-------|
A|1-3---------------------3-------------|
E|------------2-------------------------|

G|--------------------------------------|
D|----------5----3---1---0----1---------|
A|5---5---------------------------3---3-|
E|--------------------------------------|

G|--------------------------------------|
D|----3----1--0------0------------------|
A|3---------------3---------------------|
E|-------------------------5---4---2----|

G|--------------------------------------|
D|2-2---2-2------2-2---2-2--------------|
A|-------------0------------------------|
E|--------------------------------------|

G|--------------------------------------|
D|3-----3------1-----3-----5------------|
A|--------------------------------------|
E|--------------------------------------|

Almost there ...

Sign in to get your own page with links to favourite songs and more. You are just one click away...

Login with Facebook Login with Google