Log in

One click and you are in

Login with Facebook Login with Google

Why sign up and log in

Guitar Tabs Explorer
Thundercat bass tabs for Them changes

Bass tabs

Tuning: Drop D (D A D G)

Difficulty: Novice


I think he uses a phaser effect but I'm not quite sure

G|-----4-------------------------------------------------|
D|---4----------5------6------3------1-------------------|
A|-2----------5------6------3------1---------------------|
D|----------5------6------3------1------1-1-1-1-1-1/8----|

G|-----4-------------------------------------------------|
D|---4----------5------6------3------1-------------------|
A|-2----------5------6------3------1---------------------|
D|----------5------6------3------1------1-1-1-1-1-1/8----|

Bridge 1:16 (actually only piano I believe):

G|-------------------------------------------------------|
D|-------------------------------------------------------|
A|-------------------------------------------------------|
D|---4~---4----6----8----1~---(11)--------6----7--8--6~--|

G|-------------------------------------------------------|
D|-------------------------------------------------------|
A|-------------------------------------------------------|
D|---4~---4----6----8----1~---3-3-3-3-3-3-3-3-3-3-3-3-3--|

and then back to the original riff




************************************


| (n) Ghost note
| /  Slide up
| \  Slide down
| ~  Vibrato


************************************
ⓘ Bass guitar tab for 'Them Changes' by Thundercat, a male soul artist from Los Angeles, California, U.S. Thundercat was born in 1984.

Almost there ...

Sign in to get your own page with links to favourite songs and more. You are just one click away...

Login with Facebook Login with Google