Log in

One click and you are in

Login with Facebook Login with Google

Why sign up and log in

Guitar Tabs Explorer
Thundercat bass tabs for Miguels happy dance

Bass tabs

Tuning: Standard (E A D G)


Intro:

   Ab
G|--------/3--------|
D|----------4-------|
A|-------6---6-4----|
E|----4-------------|
B|------------------|

Verse 1:

     "Do the fuckin' happy dance"

   F     C#     Bb      Eb     Ab
G|------------------6---------------------------------------------------|
D|----3---3----------6--------------------------------------------------|
A|-------3-3-----4----4-6/8------4--6-6/8--6---6-6--------6------6------|
E|----------3----------------6-------6----------6-6-5--4--------4--3----|
B|-----------3---------------------------------------------4------------|

   *drums*

   F     C#     Bb      Eb     Ab
G|----------------------------------5------------------------3----------|
D|----3------------------------------8-6----------------------6-4-------|
A|-------3-3-3----------6/8----4-6/8-----8-6----------------6----6-4----|
E|--------4----4------4------6----------------6----6-5-4--7-------------|
E|---------------2-----------------------------4--4---------------------|


   F     C#     Bb      Eb     Ab
G|---------------------------------------------------------/3--------|
D|----3---3--------------------------------------------------4-------|
A|-------3-3-----4--6-4-6/8------3-4-----3----4-3---------6---6-4----|
E|----------3------4---------6--------4------4-4--4----4-------------|
B|-----------3-------------------------------------------------------|

       "It's okay if it's not goin' your way"

   F     C#     Bb      Eb     Ab
G|------------------6---------------------------------------------------|
D|----3---3----------6--------------------------------------------------|
A|-------3-3-----4----4-6/8------4--6-6/8--6---6-6--------6------6------|
E|----------3----------------6-------6----------6-6-5--4--------4--3----|
B|-----------3---------------------------------------------4------------|

   F     C#     Bb      Eb     Ab
G|----------------------------------5------------------------3----------|
D|----3------------------------------8-6----------------------6-4-------|
A|-------3-3-3----------6/8----4-6/8-----8-6----------------6----6-4----|
E|--------4----4------4------6----------------6----6-5-4--7-------------|
E|---------------2-----------------------------4--4---------------------|

              "it's always gonna hurt the same"

   F     C#     Bb      Eb     Ab
G|-----------------------------------------------------|
D|----3---3--------------------------------------------|
A|-------3-3-----4--6-4-6/8------3-4-----3----4-3------|
E|----------3------4---------6--------4------4-4--4----|
B|-----------3-----------------------------------------|


Bridge:

            "Hurt the same"

   Eb      F      Ab      E      C#
G|-------8-6-----------8-6--------------5--------------------------6------------5-------|
D|-----------6-4-----------6----6---6/8---6------------6----------6-8-6-4--------6-3----|
A|----6----------6--8--------9-----6----------7---7-9------4--6-7----------4--7---------|
E|-----------------------------------------------7------7-------------------------------|
B|--------------------------------------------------------------------------------------|

                                 "It's okay"

   Eb      E      C#        F#      B     Ab
G|-----------------------9---------------8------------------------4---------------------------------|
D|----6-------------------9-----------6-8-9-6--4-----------4-------4------6--6----------------------|
A|---------------6--7---7--7h9--4--6-7-----9----4------------4-2----2--6------6--7------------------|
E|---------4-6-7---------------------------------2----0-2----------------------4--7-0--0--0--2/4----|
B|--------------------------------------------------2-----------------------------------------------|

            "Take your time"

   Eb      F      Ab      E      C#
G|-------8-6-----------8-6--------------5--------------------------6------------5-------|
D|-----------6-4-----------6----6---6/8---6------------6----------6-8-6-4--------6-3----|
A|----6----------6--8--------9-----6----------7---7-9------4--6-7----------4--7---------|
E|-----------------------------------------------7------7-------------------------------|
B|--------------------------------------------------------------------------------------|

                                 "It's alright"

   Eb      E      C#        F#      B     Ab
G|-----------------------9---------------8------------------------4----------------------------|
D|----6-------------------9-----------6-8-9-6--4-----------4-------4------6--6-----------------|
A|---------------6--7---7--7h9--4--6-7-----9----4------------4-2----2--6------6--7-------------|
E|---------4-6-7---------------------------------2----0-2----------------------4--7-0--0--0----|
B|--------------------------------------------------2------------------------------------------|


Verse 2:

     "Do the happy dance"

   F     C#     Bb      Eb     Ab
G|----------------------------------------------------------------------|
D|----------------------------------------------------------------------|
A|-----------------------------------------6---6-6--------6------6------|
E|----------------------------------------------6-6-5--4--------4--3----|
B|---------------------------------------------------------4------------|


   F     C#     Bb      Eb     Ab
G|----------------------------------5------------------------3----------|
D|----3------------------------------8-6----------------------6-4-------|
A|-------3-3-3----------6/8----4-6/8-----8-6----------------6----6-4----|
E|--------4----4------4------6----------------6----6-5-4--7-------------|
E|---------------2-----------------------------4--4---------------------|


   F     C#     Bb      Eb     Ab
G|---------------------------------------------------------/3--------|
D|----3---3--------------------------------------------------4-------|
A|-------3-3-----4--6-4-6/8------3-4-----3----4-3---------6---6-4----|
E|----------3------4---------6--------4------4-4--4----4-------------|
B|-----------3-------------------------------------------------------|

       "It's okay if it's not goin' your way"

   F     C#     Bb      Eb     Ab
G|------------------6---------------------------------------------------|
D|----3---3----------6--------------------------------------------------|
A|-------3-3-----4----4-6/8------4--6-6/8--6---6-6--------6------6------|
E|----------3----------------6-------6----------6-6-5--4--------4--3----|
B|-----------3---------------------------------------------4------------|


   F     C#     Bb      Eb     Ab
G|----------------------------------5------------------------3----------|
D|----3------------------------------8-6----------------------6-4-------|
A|-------3-3-3----------6/8----4-6/8-----8-6----------------6----6-4----|
E|--------4----4------4------6----------------6----6-5-4--7-------------|
E|---------------2-----------------------------4--4---------------------|

              "it's always gonna hurt the same"

   F     C#     Bb      Eb     Ab
G|-----------------------------------------------------|
D|----3---3--------------------------------------------|
A|-------3-3-----4--6-4-6/8------3-4-----3----4-3------|
E|----------3------4---------6--------4------4-4--4----|
B|-----------3-----------------------------------------|


************************************

| h  Hammer-on
| /  Slide up

************************************

Almost there ...

Sign in to get your own page with links to favourite songs and more. You are just one click away...

Login with Facebook Login with Google