Log in

One click and you are in

Login with Facebook Login with Google

Why sign up and log in

Guitar Tabs Explorer
Thundercat bass tabs for I love louis cole

Bass tabs with lyrics

Tuning: Standard (E A D G)


Verse 1:

(0:24)      -  "Let me say good morning my friend"

   F#9          F#m11         Bmaj7         F#9
G|---------------------------------------------------------------------------------------------|
D|----4---4---4---4--4--4---4---4---4---4--4--2-------------------------4---4---4---4--4--4----|
A|------------------------------------------------2---2---2---2--2--4--------------------------|
E|---------------------------------------------------------------------------------------------|

   F#9          D13#11        Bmaj7         F#9
G|-----------------------------------------------------------------------------------------------|
D|----4---4---4---4--4--------------------------------------------------4---4---4------2h4-------|
A|----------------------7---5---5---5---5--5--0---2---2---2---2--2--4-------------4p2h4---2h4----|
E|-----------------------------------------------------------------------------------------------|

   F#9          F#m11         Bmaj7         F#9
G|---------------------------------------------------------------------------------------------|
D|----4---4---4---4--4--4---4---4---4---4--4--2-------------------------4---4---4---4--4--4----|
A|------------------------------------------------2---2---2---2--2--4--------------------------|
E|---------------------------------------------------------------------------------------------|

   F#9          D13#11        Bmaj7         F#9
G|-----------------------------------------------------------------------------------------------|
D|----4---4---4---4--4--------------------------------------------------4---4---4------2h4-------|
A|----------------------7---5---5---5---5--5--0---2---2---2---2--2--4-------------4p2h4---2h4----|
E|-----------------------------------------------------------------------------------------------|


Chorus:     - "Lets do it all again"


   Am7          Am9/Bb        C6/9         C#7sus4
G|---------------------------------------------------------------------------------------------|
D|---------------------------------------------------------------------------------------------|
A|---------------------------------------------------------------------------------------------|
E|----5---5---5---5--5--5---6---6---6---6--6--6---8---8---8---8--8--8---9---9---9---9--9--9----|


   D13#11        D#m7         Bm7          C9
G|---------------------------------------------------------------------------------------------|
D|---------------------------------------------------------------------------------------------|
A|----5---5---5---5--5--5---6---6---6---6--6--6------------------------------------------------|
E|------------------------------------------------7---7---7---7--7--7---8---8---8---8--8--8----|

   Am7          Am9/Bb        C6/9         C#7sus4
G|------------------------------------------------------------------------------------------------|
D|-------------------------------------------------------------------------------11p9--9----------|
A|-----------------------------------------------------------------------------------11-11-9-7----|
E|----5---5---5---5--5--5---6---6---6---6--6--6---8---8---8---8-6h8-8---9---9---9-----------------|


   D13#11        D#m7         Bm7          C9
G|---------------------------------------------------------------------------------------------|
D|---------------------------------------------------------------------------------------------|
A|----5---5---5---5--5--5---6---6---6---6------------------------------------------------------|
E|-----------------------------------------4--6---7---7---7---7--7--7---8---8---8---8--8--8----|


Post-Chorus:   - "Its just more fun, when you come around"

   A           A9/G#         D/F#         Amaj7/E
G|---------------------------------------------------------------------------------------------|
D|---------------------------------------------------------------------------------------------|
A|---------------------------------------------------------------------------------------------|
E|----5---5---5---5--5--5---4---4---4---4--4--4---2---2---2---2--2--2---0---0---0---0--0--0----|

   Dmaj7         Amaj7/C#       Bm7          A/E     E
G|---------------------------------------------------------------------------------------------|
D|---------------------------------------------------------------------------------------------|
A|----5---5---5---5--5--5---4---4---4---4--4--4---2---2---2---2--2--2--------------------------|
E|----------------------------------------------------------------------0---0---0---0--0--0----|

   Dmaj7         Amaj7/C#       Bm7          A/E     E
G|---------------------------------------------------------------------------------------------|
D|---------------------------------------------------------------------------------------------|
A|----5---5---5---5--5--5---4---4---4---4--4--4---2---2---2---2--2--2---7---7---7---7--7--7----|
E|------------------5--5------------------4----------------------------------------------------|



Verse 2:

(1:48)      - "Then you fell asleep on the laundry in my room"


   F#9          F#m11         Bmaj7         F#9
G|---------------------------------------------------------------------------------------------|
D|----4---4---4---4--4--4---4---4---4---4--4--2-------------------------4---4---4---4--4--4----|
A|------------------------------------------------2---2---2---2--2--4--------------------------|
E|---------------------------------------------------------------------------------------------|

   F#9          D13#11        Bmaj7         F#9
G|-----------------------------------------------------------------------------------------------|
D|----4---4---4---4--4--------------------------------------------------4---4---4------2h4-------|
A|----------------------7---5---5---5---5--5--0---2---2---2---2--2--4-------------4p2h4---2h4----|
E|-----------------------------------------------------------------------------------------------|

                        "Lets do it all again"
   F#9          F#m11         Bmaj7         F#9
G|------------------------------------------------------------4p3------------------------------|
D|-------------------4-4------------------------------------------4-------------6-4--4----4----|
A|----------------2h4-4-2h4-------------------4---2---2---2---------4-------4-------6-4\2------|
E|----2---2---2h4-----------2---2---2---2h4/6---------------------------2----------------------|

   F#9          D13#11        Bmaj7         F#9
G|-------------------------------11--------------------------------------------------------------|
D|--------------/6-4------4--------12-10-9------------------------------4---4---4------2h4-------|
A|-----------4-2----6-4h6---5---5---------12--9---2---2---2---2--2--4-------------4p2h4---2h4----|
E|----2---2--------------------------------------------------------------------------------------|


Wordless Chorus / Bass Solo:

   Am7          Am9/Bb        C6/9         C#7sus4
G|---------------------------------------------------------------------------------------------|
D|---------------------------------------------------------------------------------------------|
A|---------------------------------------------------------------------------------------------|
E|----5---5---5---5--5--5---6---6---6---6--6--6---8---8---8---8--8--8---9---9---9---9--9--9----|

   D13#11        D#m7         Bm7          C9
G|---------------------------------------------------------------------------------------------|
D|---------------------------------------------------------------------------------------------|
A|----5---5---5---5--5--5---6---6---6---6--6--6------------------------------------------------|
E|------------------------------------------------7---7---7---7--7--7---8---8---8---8--8--8----|
   Am7          Am9/Bb        C6/9         C#7sus4
G|---------------------------------------------------------------------------------------------|
D|---------------------------------------------------------------------------------------------|
A|---------------------------------------------------------------------------------------------|
E|----5---5---5---5--5--5---6---6---6---6--6--6---8---8---8---8--8--8---9---9---9---9--9--9----|

   D13#11        D#m7         Bm7          C9
G|---------------------------------------------------------------------------------------------|
D|---------------------------------------------------------------------------------------------|
A|----5---5---5---5--5--5---6---6---6---6--6--6------------------------------------------------|
E|------------------------------------------------7---7---7---7--7--7---8---8---8---8--8--8----|

   Am7          Am9/Bb        C6/9         C#7sus4
G|---------------------------------------------------------------------------------------------|
D|---------------------------------------------------------------------------------------------|
A|---------------------------------------------------------------------------------------------|
E|----5---5---5---5--5--5---6---6---6---6--6--6---8---8---8---8--8--8---9---9---9---9--9--9----|

   D13#11        D#m7         Bm7          C9
G|---------------------------------------------------------------------------------------------|
D|---------------------------------------------------------------------------------------------|
A|----5---5---5---5--5--5---6---6---6---6--6--6------------------------------------------------|
E|------------------------------------------------7---7---7---7--7--7---8---8---8---8--8--8----|


Post-Chorus:

   A           A9/G#         D/F#         Amaj7/E
G|---------------------------------------------------------------------------------------------|
D|----7---7---7---7--7--7---6---6---6---6--6--6---4---4---4---4--4--4--------------------------|
A|--------------------------------------------------------------4--4----7---7---7---7--7--7----|
E|---------------------------------------------------------------------------------------------|

   Dmaj7         Amaj7/C#       Bm7          A/E     E
G|-------------------------------------6--------------------------------------------------------|
D|----------------------------------6--------6-------------------------------------------------|
A|----5---5---5---5--5--5---4---4----------4--4-------------------------7---7---7---7--7--7----|
E|------------------5--5-----------------4--------7---7---7---7--7--7--------------------------|

   Dmaj7         Amaj7/C#       Bm7          A/E     E
G|---------------------------------------------------------------------------------------------|
D|---------------------------------------------------------------------------------------------|
A|----5---5---5---5--5--5---4---4---4---4--4--4---2---2---2---2--2--2---7---7---7---7---7-7----|
E|------------------5--5------------------4-------------------------------------------0--------|

   Dmaj7         Amaj7/C#       Bm7          A/E     E
G|---------------------------------------------------------------------------------------------|
D|---------------------------------------------------------------------------------------------|
A|----5---5---5---5--5--5---4---4---4---4---------------------------9---7---7---7---7---7-7----|
E|------------------5--5-------------------5--6---7---7---7---7--7--------------------0--------|


************************************

| h  Hammer-on
| p  Pull-off
| /  Slide up
| \  Slide down


************************************

Almost there ...

Sign in to get your own page with links to favourite songs and more. You are just one click away...

Login with Facebook Login with Google