Log in

One click and you are in

Login with Facebook Login with Google

Why sign up and log in

Guitar Tabs Explorer
Thundercat bass tabs for Funny thing

Bass tabs

Tuning: Standard (E A D G)


Verse 1:    - "Do you mind if I wild out"

G|-------------------------------------------------------------------------|
D|-------------------------5/7\5--0----------------------------------------|
A|---------5/7\5---0------------------------------------------------5------|
E|----3---------------3-------------3---------------------------------5----|
B|-----------------------------------3--1---1---1---1---1---1-----3--------|
G|-------------------------------------------------------------------------|
D|-----------------5-------------------------------------------------------|
A|-------------5------------5/7\5--0-----------------------------/5--------|
E|----3----5/7----------------------3-------------------------------5------|
B|-----------------------------------3--1---1---1---1---1---1---------3----|


G|--------------------------2/4--------------------------------------------|
D|----------5/7\5--0------------5------------------------------------------|
A|--------------------------------5-----------------------------------5----|
E|----3---------------3-------------3-------------------------------5------|
B|-----------------------------------3--1---1---1---1---1---1-----3--------|


G|-------------------------------------------------------------------------|
D|-----------------5-------------------------------------------------------|
A|-------------5------------5/7\5--0--------------------------3-------5----|
E|----3----5/7----------------------3---------------------------3----------|
B|-----------------------------------3--1---1---1---1---1---1-----1/3------|



Chorus:    - "Cause when we hit the peak"

G|-------------------------------------------------------------------------|
D|----------------5--------------------------------------------------------|
A|------------5-7-----------5/7\5--0----------------------------------5----|
E|----3----/7-----------------------3-------------------------------5------|
B|-----------------------------------3--1---1---1---1---1---1-----3--------|

G|--------------------------2/4--------------------------------------------|
D|------------------------------5------------------------------------------|
A|---------5/7\5---0--------------5-----------------------------------5----|
E|----3---------------3-------------3-------------------------------5------|
B|-----------------------------------3--1---1---1---1---1---1-----3--------|



Verse 2:    - "Someone hold my phone, cause I can't hold my tongue"

G|-------------------------------------------------------------------------|
D|-----------------5-------------------------------------------------------|
A|-------------5------------5/7\5--0--------------------------------5------|
E|----3----5/7----------------------3---------------------------------5----|
B|-----------------------------------3--1---1---1---1---1---1-----3--------|


G|-------------------------------------------------------------------------|
D|---------5/7\5---0-------------------------------------------------------|
A|-------------------------5/7\5--0---------------------------------5------|
E|----3---------------3-------------3---------------------------------5----|
B|-----------------------------------3--1---1---1---1---1---1-----3--------|


G|------------0h2/4--------------------------------------------------------|
D|---------0h2-------------------------------------------------------------|
A|--------------------------5/7\5--0----------------------------------5----|
E|----3-----------------------------3-----------------------------5-7------|
B|-----------------------------------3--1---1---1---1---1---1--------------|


G|---------2/4--------------5p4--------------------------------------------|
D|-------------5----------------5--0---------------------------------------|
A|---------------5---------------------------------------------------------|
E|----3------------------------------3----------------------------3h5/7----|
B|--------------------------------------1---1---1---1---1---1--3h5---------|



Chorus:    - "But I just wanna party with you"

G|-------------------------------------------------------------------------|
D|----------------5--------------------------------------------------------|
A|------------5-7-----------5/7\5--0----------------------------------5----|
E|----3----/7-----------------------3-------------------------------5------|
B|-----------------------------------3--1---1---1---1---1---1-----3--------|


G|--------------------------2/4--------------------------------------------|
D|------------------------------5------------------------------------------|
A|---------5/7\5---0--------------5-----------------------------------5----|
E|----3---------------3-------------3-------------------------------5------|
B|-----------------------------------3--1---1---1---1---1---1-----3--------|


G|-------------------------------------------------------------------------|
D|---------5/7\5---0--------------5----------------------------------------|
A|----------------------------5-7---5---3-----------------------------5----|
E|----3--------------------/7---------------------------------------5------|
B|------------------------------------------1---1---1---1---1-----3--------|


G|------------0h2/4--------------------------------------------------------|
D|---------0h2-------------------------------------------------------------|
A|--------------------------5/7\5--0--------------------------3-------5----|
E|----3-----------------------------3---------------------------3----------|
B|-----------------------------------3--1---1---1---1---1---1-----1/3------|



Outro:

G|-------------------------------------------------------------------------|
D|----------------5--------------------------------------------------------|
A|------------5-7-----------5/7\5--0----------------------------------5----|
E|----3----/7-----------------------3-------------------------------5------|
B|-----------------------------------3--1---1---1---1---1---1-----3--------|


G|--------------------------2/4--------------------------------------------|
D|------------------------------5------------------------------------------|
A|---------5/7\5---0--------------5-----------------------------------5----|
E|----3---------------3-------------3-------------------------------5------|
B|-----------------------------------3--1---1---1---1---1---1-----3--------|


************************************

| h  Hammer-on
| p  Pull-off
| /  Slide up
| \  Slide down

************************************

Almost there ...

Sign in to get your own page with links to favourite songs and more. You are just one click away...

Login with Facebook Login with Google