Log in

One click and you are in

Login with Facebook Login with Google

Why sign up and log in

Guitar Tabs Explorer
Thundercat bass tabs for Fair chance

Bass tabs

Tuning: Standard (E A D G)

Song has 4 bass parts that use different voicings of the same chords


Chorus:    - Thundercat   (no bass until 0:16)

                          "Even though you're not around"

                                       C#5
C|------------------------------------------------------------------------------20---20----|
G|-----------------------------------------------------------------------------18---18-----|
D|----------------------------------------------------------------------------18---18------|
A|---------------------------------------------------------------------------16---16-------|
E|-----------------------------------------------------------------------------------------|
B|-----------------------------------------------------------------------------------------|


C|------------------------------------------------------------------------------13---13----|
G|-----------------------------------------------------------------------------13---13-----|
D|----------------------------------------------------------------------------11---11------|
A|---------------------------------------------------------------------------11---11-------|
E|-----------------------------------------------------------------------------------------|
B|-----------------------------------------------------------------------------------------|


C|-----------------------------------------------------------------22h23p22----------------|
G|-------------------------------------------------------------------------23p21\20--------|
D|---------------------------------------------------------------------------------23\21---|
A|-----------------------------------------------------------------------------------------|
E|-----------------------------------------------------------------------------------------|
B|-----------------------------------------------------------------------------------------|

C|-----------------------------------------------------------------------------------------|
G|-----------------------------------------------------------------------------------------|
D|-----------------------------------------------------------------------------------------|
A|-----------------------------------------------------------------------------------------|
E|---------------------------------------------------------------------------/6------------|
B|-----------------------------------------------------------------------------------------|


____________________________________________________________________________________________
                                              \
    Amaj7                  B6              C#5      \
                                               \
C|-------20---20---20---20---20---20---20---20----18---18---18---18---18---18---18---18----|  \
G|------18---18---18---18---18---18---18---18----16---16---16---16---16---16---18---18-----|  \
D|----------------------------------------------16---16---16---16---16---16---18---18------|   \
A|-----19---19---19---19---19---19---19---19---14---14---14---14---14---14---16---16-------|   \
E|----17---17---17---17---17---17---17---17------------------------------------------------|    \
B|-----------------------------------------------------------------------------------------|    \
                                                   \
                                                   \
C|-------8----8----8----8----8----8----8----8-----11---11---11---11---11---11---13---13----|      \
G|------6----6----6----6----6----6----6----6-----11---11---11---11---11---11---13---13-----|      \
D|-----7----7----7----7----7----7----7----7-----9----9----9----9----9----9----11---11------|       \
A|----7----7----7----7----7----7----7----7-----9----9----9----9----9----9----11---11-------|       \
E|-----------------------------------------------------------------------------------------|        \
B|-----------------------------------------------------------------------------------------|
                                                      x4

C|-------23---23---23---23---23---23---23---23-22h23p22--------------22h23p22--------------|        /
G|------21---21---21---21---21---21---21---21----------23p21\20--------------23p21\20------|       /
D|-----23---23---23---23---23---23---23---23-------------------23\21-----------------23\21-|       /
A|----x----x----x----x----x----x----x----x-------------------------------------------------|      /
E|-----------------------------------------------------------------------------------------|      /
B|-----------------------------------------------------------------------------------------|     /
                                                   /
                                                  /
C|-----------------------------------------------------------------------------------------|    /
G|-----------------------------------------------------------------------------------------|   /
D|-----------------------------------------------------------------------------------------|   /
A|--------------7--------------------------------------------------------------------------|  /
E|----5---------------7---5---------4--7-------------------------------------/6------------|  /
B|----------------5-7--------------------7--5--2-------------------2-----------------------| /
_____________________________________________________________________________________________/



Verse 2:    - Ty Dolla $ign


____________________________________________________________________________________________
                                              \
    Amaj7                  B6              C#5      \
                                               \
C|-------20---20---20---20---20---20---20---20----18---18---18---18---18---18---18---18----|  \
G|------18---18---18---18---18---18---18---18----16---16---16---16---16---16---18---18-----|  \
D|----------------------------------------------16---16---16---16---16---16---18---18------|   \
A|-----19---19---19---19---19---19---19---19---14---14---14---14---14---14---16---16-------|   \
E|----17---17---17---17---17---17---17---17------------------------------------------------|    \
B|-----------------------------------------------------------------------------------------|    \
                                                   \
                                                   \
C|-------8----8----8----8----8----8----8----8-----11---11---11---11---11---11---13---13----|      \
G|------6----6----6----6----6----6----6----6-----11---11---11---11---11---11---13---13-----|      \
D|-----7----7----7----7----7----7----7----7-----9----9----9----9----9----9----11---11------|       \
A|----7----7----7----7----7----7----7----7-----9----9----9----9----9----9----11---11-------|       \
E|-----------------------------------------------------------------------------------------|        \
B|-----------------------------------------------------------------------------------------|
                                                      x6

C|-------23---23---23---23---23---23---23---23-22h23p22--------------22h23p22--------------|        /
G|------21---21---21---21---21---21---21---21----------23p21\20--------------23p21\20------|       /
D|-----23---23---23---23---23---23---23---23-------------------23\21-----------------23\21-|       /
A|----x----x----x----x----x----x----x----x-------------------------------------------------|      /
E|-----------------------------------------------------------------------------------------|      /
B|-----------------------------------------------------------------------------------------|     /
                                                   /
                                                  /
C|-----------------------------------------------------------------------------------------|    /
G|-----------------------------------------------------------------------------------------|   /
D|-----------------------------------------------------------------------------------------|   /
A|--------------7--------------------------------------------------------------------------|  /
E|----5---------------7---5---------4--7-------------------------------------/6------------|  /
B|----------------5-7--------------------7--5--2-------------------2-----------------------| /
_____________________________________________________________________________________________/



Verse 3:    - Lil B


____________________________________________________________________________________________
                                              \
    Amaj7                  B6              C#5      \
                                               \
C|-----------------------------------------------------------------------------------------|  \
G|-----------------------------------------------------------------------------------------|  \
D|-----------------------------------------------------------------------------------------|   \
A|-----------------------------------------------------------------------------------------|   \
E|-----------------------------------------------------------------------------------------|    \
B|-----------------------------------------------------------------------------------------|    \
                                                   \
                                                   \
C|-------8----8----8----8----8----8----8----8-----11---11---11---11---11---11---13---13----|      \
G|------6----6----6----6----6----6----6----6-----11---11---11---11---11---11---13---13-----|      \
D|-----7----7----7----7----7----7----7----7-----9----9----9----9----9----9----11---11------|       \
A|----7----7----7----7----7----7----7----7-----9----9----9----9----9----9----11---11-------|       \
E|-----------------------------------------------------------------------------------------|        \
B|-----------------------------------------------------------------------------------------|
                                                      x2

C|-------23---23---23---23---23---23---23---23-22h23p22--------------22h23p22--------------|        /
G|------21---21---21---21---21---21---21---21----------23p21\20--------------23p21\20------|       /
D|-----23---23---23---23---23---23---23---23-------------------23\21-----------------23\21-|       /
A|----x----x----x----x----x----x----x----x-------------------------------------------------|      /
E|-----------------------------------------------------------------------------------------|      /
B|-----------------------------------------------------------------------------------------|     /
                                                   /
                                                  /
C|-----------------------------------------------------------------------------------------|    /
G|-----------------------------------------------------------------------------------------|   /
D|-----------------------------------------------------------------------------------------|   /
A|--------------7--------------------------------------------------------------------------|  /
E|----5---------------7---5---------4--7-------------------------------------/6------------|  /
B|----------------5-7--------------------7--5--2-------------------2-----------------------| /
_____________________________________________________________________________________________/


                 "And I been workin' 9 to 9"

C|-----------------------------------------------------------------------------------------|
G|-----------------------------------------------------------------------------------------|
D|-----------------------------------------------------------------------------------------|
A|-----------------------------------------------------------------------------------------|
E|-----------------------------------------------------------------------------------------|
B|-----------------------------------------------------------------------------------------|


C|-------8----8----8----8----8----8----8----8-----11---11---11---11------------------------|
G|------6----6----6----6----6----6----6----6-----11---11---11---11-------------------------|
D|-----7----7----7----7----7----7----7----7-----9----9----9----9---------------------------|
A|----7----7----7----7----7----7----7----7-----9----9----9----9----------------------------|
E|-----------------------------------------------------------------------------------------|
B|-----------------------------------------------------------------------------------------|


C|-----------------------------------------------------------------------------------------|
G|-----------------------------------------------------------------------------------------|
D|-----------------------------------------------------------------------------------------|
A|-----------------------------------------------------------------------------------------|
E|-----------------------------------------------------------------------------------------|
B|-----------------------------------------------------------------------------------------|


C|-----------------------------------------------------------------------------------------|
G|-----------------------------------------------------------------------------------------|
D|-----------------------------------------------------------------------------------------|
A|--------------7--------------------------------------------------------------------------|
E|----5---------------7---5---------4--7-------------------------------------4--0-----7----|
B|----------------5-7--------------------7--5--2-------------------2---------------7-------|


          "But they talk about it"

C|-------20---20---20---20---20---20---20---20----18---18---18---18---18---18---18---18----|
G|------18---18---18---18---18---18---18---18----16---16---16---16---16---16---18---18-----|
D|----------------------------------------------16---16---16---16---16---16---18---18------|
A|-----19---19---19---19---19---19---19---19---14---14---14---14---14---14---16---16-------|
E|----17---17---17---17---17---17---17---17------------------------------------------------|
B|-----------------------------------------------------------------------------------------|


C|-------8----8----8----8----8----8----8----8-----11---11---11---11---11---11---13---13----|
G|------6----6----6----6----6----6----6----6-----11---11---11---11---11---11---13---13-----|
D|-----7----7----7----7----7----7----7----7-----9----9----9----9----9----9----11---11------|
A|----7----7----7----7----7----7----7----7-----9----9----9----9----9----9----11---11-------|
E|-----------------------------------------------------------------------------------------|
B|-----------------------------------------------------------------------------------------|


C|-------23---23---23---23---23---23---23---23-22h23p22--------------22h23p22--------------|
G|------21---21---21---21---21---21---21---21----------23p21\20--------------23p21\20------|
D|-----23---23---23---23---23---23---23---23-------------------23\21-----------------23\21-|
A|----x----x----x----x----x----x----x----x-------------------------------------------------|
E|-----------------------------------------------------------------------------------------|
B|-----------------------------------------------------------------------------------------|


C|-----------------------------------------------------------------------------------------|
G|-----------------------------------------------------------------------------------------|
D|-----------------------------------------------------------------------------------------|
A|--------------7------------------------------------------------2-------------------------|
E|----5---------------7---5---------4--7----------------4--0--2--------------/6------------|
B|----------------5-7--------------------7--5--2-------------------2-----------------------|


____________________________________________________________________________________________
                                              \
    Amaj7                  B6              C#5      \
                                               \
C|-------20---20---20---20---20---20---20---20----18---18---18---18---18---18---18---18----|  \
G|------18---18---18---18---18---18---18---18----16---16---16---16---16---16---18---18-----|  \
D|----------------------------------------------16---16---16---16---16---16---18---18------|   \
A|-----19---19---19---19---19---19---19---19---14---14---14---14---14---14---16---16-------|   \
E|----17---17---17---17---17---17---17---17------------------------------------------------|    \
B|-----------------------------------------------------------------------------------------|    \
                                                   \
                                                   \
C|-------8----8----8----8----8----8----8----8-----11---11---11---11---11---11---13---13----|      \
G|------6----6----6----6----6----6----6----6-----11---11---11---11---11---11---13---13-----|      \
D|-----7----7----7----7----7----7----7----7-----9----9----9----9----9----9----11---11------|       \
A|----7----7----7----7----7----7----7----7-----9----9----9----9----9----9----11---11-------|       \
E|-----------------------------------------------------------------------------------------|        \
B|-----------------------------------------------------------------------------------------|
                                                      x2

C|-------23---23---23---23---23---23---23---23-22h23p22--------------22h23p22--------------|        /
G|------21---21---21---21---21---21---21---21----------23p21\20--------------23p21\20------|       /
D|-----23---23---23---23---23---23---23---23-------------------23\21-----------------23\21-|       /
A|----x----x----x----x----x----x----x----x-------------------------------------------------|      /
E|-----------------------------------------------------------------------------------------|      /
B|-----------------------------------------------------------------------------------------|     /
                                                   /
                                                  /
C|-----------------------------------------------------------------------------------------|    /
G|-----------------------------------------------------------------------------------------|   /
D|-----------------------------------------------------------------------------------------|   /
A|--------------7--------------------------------------------------------------------------|  /
E|----5---------------7---5---------4--7-------------------------------------/6------------|  /
B|----------------5-7--------------------7--5--2-------------------2-----------------------| /
_____________________________________________________________________________________________/





Chorus:    - Thundercat

                          "I keep holding you down"


C|-----------------------------------------------------------------------------------------|
G|-----------------------------------------------------------------------------------------|
D|-----------------------------------------------------------------------------------------|
A|-----------------------------------------------------------------------------------------|
E|-----------------------------------------------------------------------------------------|
B|-----------------------------------------------------------------------------------------|


C|-----------------------------------------------------------------------------------------|
G|-----------------------------------------------------------------------------------------|
D|-----------------------------------------------------------------------------------------|
A|-----------------------------------------------------------------------------------------|
E|-----------------------------------------------------------------------------------------|
B|-----------------------------------------------------------------------------------------|


C|-----------------23---23---23---23---23---23-22h23p22--------------22h23p22--------------|
G|----------------21---21---21---21---21---21----------23p21\20--------------23p21\20------|
D|---------------23---23---23---23---23---23-------------------23\21-----------------23\21-|
A|--------------x----x----x----x----x----x-------------------------------------------------|
E|-----------------------------------------------------------------------------------------|
B|-----------------------------------------------------------------------------------------|


C|-----------------------------------------------------------------------------------------|
G|-----------------------------------------------------------------------------------------|
D|-----------------------------------------------------------------------------------------|
A|-----------------------------------------------------------------------------------------|
E|---------------------------------------------------------------------------/6------------|
B|-----------------------------------------------------------------------------------------|


____________________________________________________________________________________________
                                              \
    Amaj7                  B6              C#5      \
                                               \
C|-------20---20---20---20---20---20---20---20----18---18---18---18---18---18---18---18----|  \
G|------18---18---18---18---18---18---18---18----16---16---16---16---16---16---18---18-----|  \
D|----------------------------------------------16---16---16---16---16---16---18---18------|   \
A|-----19---19---19---19---19---19---19---19---14---14---14---14---14---14---16---16-------|   \
E|----17---17---17---17---17---17---17---17------------------------------------------------|    \
B|-----------------------------------------------------------------------------------------|    \
                                                   \
                                                   \
C|-------8----8----8----8----8----8----8----8-----11---11---11---11---11---11---13---13----|      \
G|------6----6----6----6----6----6----6----6-----11---11---11---11---11---11---13---13-----|      \
D|-----7----7----7----7----7----7----7----7-----9----9----9----9----9----9----11---11------|       \
A|----7----7----7----7----7----7----7----7-----9----9----9----9----9----9----11---11-------|       \
E|-----------------------------------------------------------------------------------------|        \
B|-----------------------------------------------------------------------------------------|
                                                      x5

C|-------23---23---23---23---23---23---23---23-22h23p22--------------22h23p22--------------|        /
G|------21---21---21---21---21---21---21---21----------23p21\20--------------23p21\20------|       /
D|-----23---23---23---23---23---23---23---23-------------------23\21-----------------23\21-|       /
A|----x----x----x----x----x----x----x----x-------------------------------------------------|      /
E|-----------------------------------------------------------------------------------------|      /
B|-----------------------------------------------------------------------------------------|     /
                                                   /
                                                  /
C|-----------------------------------------------------------------------------------------|    /
G|-----------------------------------------------------------------------------------------|   /
D|-----------------------------------------------------------------------------------------|   /
A|--------------7--------------------------------------------------------------------------|  /
E|----5---------------7---5---------4--7-------------------------------------/6------------|  /
B|----------------5-7--------------------7--5--2-------------------2-----------------------| /
_____________________________________________________________________________________________/


************************************

| x  Dead note
| h  Hammer-on
| p  Pull-off

************************************

Almost there ...

Sign in to get your own page with links to favourite songs and more. You are just one click away...

Login with Facebook Login with Google