Log in

One click and you are in

Login with Facebook Login with Google

Why sign up and log in

Guitar Tabs Explorer
Thundercat bass tabs for Existential dread

Bass tabs

Tuning: Standard (E A D G)

If you play a 4-string just play a 2 on the E string instead and slide or shift back
 up to the 9 on the E string to continue with the riff.
Intro:

G|-----------------------8\7----------------------------------------------------|
D|--8------------------------8--------------------------------------------------|
A|---9--------------9--89-----9--11------6------6-8-----------------------------|
E|--------9---11-----11------------9-------6-9-----9-4--------------------------|
B|------------------------------------------------------------------------------|


Verse:

G|----------------------------8-7--------------------8\7--------------------------|
D|------6------------------------8----------------------8-------------------------|
A|---------6--8-9--------9--89----9-----------9--89------9--11-----6------6-8-----|
E|---9------------9---11--11---------9--11-----11-------------9-------6-9-----9-4-|
B|7-------------------------------------------------------------------------------|


Chorus/Outro:

G|----------------------------7/8\7-------------------8\7------------------------------|
D|------6---------------------------8--------------------8-----------------------------|
A|---------6-8--9--------9--89-------9-----------9--89----9--11-----6------6-8---------|
E|---9------------9---11--11------------9--11-----11-----------9-------6-9-----9-4-----|
B|7--------------------------------------------------------------------------------7~--|


************************************


| /  Slide up
| \  Slide down
| ~  Vibrato


************************************

Almost there ...

Sign in to get your own page with links to favourite songs and more. You are just one click away...

Login with Facebook Login with Google