Log in

One click and you are in

Login with Facebook Login with Google

Why sign up and log in

Guitar Tabs Explorer
Thunder bass tabs for Love walked in

Bass tabs

Tuning: Standard (E A D G)

Listen to the record for all the timings but you can be pretty loose with a lot of it.


Intro 12s~:

G|-------------------|
D|-------------------|
A|-5-------------5---|
E|------------5------|
Verse 1-Rest:


Pre-Chorus- 1:29~:

G|---------------------------------------------------------------------------|
D|---------------------------------------------------------------------------|
A|-2-2-2-2-2-2-2-2-2-2-2-2-2-2-2-2-------------------------------------------|
E|---------------------------------------------------------------------------|


Chorus- 1:33~:

G|---------------------------------------------------------------------------|
D|---------------------------------------------------------------------------|
A|-5-5---1-1---------5-3---3---3-4-5-5--5-3-1-1--1-3--------------3----------|
E|-------------1-3/5---------5-----------------------1-1--0-1-2-3------------|

G|---------------------------------------------------------------------------|
D|---------------------------------------------------------------------------|
A|-5-5---5-3-1-1--1-3------3---3---0-1~~~~~~~~/5-----------------------------|
E|--------------------1--1-------3-------------------------------------------|


Verse 2- 2:00~:

G|---------------------------------------------------------------------------|
D|---------------------------------------------------------------------------|
A|-3-0-0-3-5----5-3-5----0-3-5----5-3-5---------0-3------5-4-3-3----3-4-5----|
E|------------------------------------------1-3-----3------------5-----------|

G|----------------------------------------------------------------------------------------|
D|--------------3---3---------------------------------------------------------------------|
A|-----0-3----3---3----5-3---3-3---3-5/7\5-3-----3-5/7\5-3---5--3--1--1--1--1--1--1--1--1-|
E|-0-1-----1---------------3------------------3-------------------------------------------|

G|-----------------------------------|
D|-----------------------------------|
A|-2-2-2-2-2-2-2-2-2-2-2-2-2-2-2-2---|
E|-----------------------------------|



Chorus 2- 2:44~:

G|---------------------------------------------------------------------------|
D|---------------------------------------------------------------------------|
A|-5-5---1-1---------5-3---3---3-4-5-5--5-3-1-1--1-3--------------3----------|
E|-------------1-3/5---------5-----------------------1-1--0-1-2-3------------|

G|-------------------------------------------------------------------|
D|-------------------------------------------------------------------|
A|-5-5---5-3-1-1--1-3------3---3---0-1-1-1-1-1-1-1-1-3-3-3-3-3-3-1-0-|
E|--------------------1--1-------3-----------------------------------|

G|------------------------------6--|
D|--------------------------7---7--|
A|------------------------7---7----|
E|-3-3--3-0-1-2-3-3---3-5----------|


Bridge- 3:14~:

G|--------------------------------------------------------------------------------------|
D|-3-2-0-0--------------------------------------3-2-0-0---------------------------------|
A|------------------------------2-2-2-3-3-3-4-4---------1-1-1/3-3-3-3-------------------|
E|----------1-1-1/3-3-3-3-3-3-3---------------------------------------0-0-0-1-1-1-3-3-3-|

G|--------------------------------------------------|
D|-3-2-0-0-----------------------3-2-0-0------------|
A|----------------------------3----------1-1-1/3-3--|
E|---------1-1-1/3-3--3-4-5-------------------------|


Solo- 3:38~:

G|---------------------------------------------------------------------------|
D|-----------------------------------------------------3-2-0---0-3-2-0---0---|
A|-3-2-1-1-1-1-1-1-1-1-1-1-1-1-1-1-3-3-5-5-5-5-5-5-5-5-------3---------3-----|
E|---------------------------------------------------------------------------|

G|-----------------------------------------------------------------------------------------|
D|-----------------------------------------------------------------------------------------|
A|-3-1-1-1-1-1-1-1-1-1-1-1-1-1-1-1--1-1-1--1-1-0-3-----------------3--3--0--5~~~~~~~~----5-|
E|-------------------------------------------------1-1-1-1-1-1-1-1-------------------------|


Verse/Pre-Chorus thing- 4:14~:

G|------------------------------------------------------------------------------------|
D|------------3---3--3/5--------------------------------------------------------------|
A|-----3----3---3--------3----3-3-----5/8-7--5-3-5/7-3-------0-1--1--1--1--1--1--1--1-|
E|-3h5---1------------------3------------------------------3--------------------------|

G|------------------------------------|
D|------------------------------------|
A|-2-2-2-2-2-2-2-2-2-2-2-2-2-2-2-2-3~~|
E|------------------------------------|


Chorus 3- 4:36~:

G|---------------------------------------------------------------------------|
D|---------------------------------------------------------------------------|
A|-5-5--5-3-1-1--1-3-------5-3---3-4-5-5-5---5-3-1-1---1-3---------------3---|
E|-------------------1-3/5---------------------------------1-1---0-1-2-3-----|

G|---------------------------------------------------------------------------|
D|---------------------------------------------------------------------------|
A|-5-5--5-3-1-1--1-3------3---5-5-5-3-5-3-1-1-1-3-------5-3--3-3---3-4-------|
E|-------------------1--1-------------------------1-3/5----------5-----------|

G|----------------------------------------------------------------------------------|
D|-----3-2-0------------------------------------------------------------------------|
A|-5-5-------3-1-1--1-0-1-3--------------3---5-5-5-3-5-3-1-1--1-0-1-3------3----0-1-|
E|--------------------------1-1--0-1-2-3------------------------------1--1----3-----|

G|--------------------------------------------------|
D|--------------------------------------------7---7-|
A|-1-1-1--1-3--3-3-1-0----------------------7---7---|
E|---------------------3-3-3-0-1-2-3-3--3-5---------|


Bridge/Outro- 5:26~:

G|--------------------------------------------------------------------------------------|
D|-3-2-0-0--------------------------------------3-2-0-0---------------------------------|
A|------------------------------2-2-2-3-3-3-4-4---------1-1-1/3-3-3-3-------------------|
E|----------1-1-1/3-3-3-3-3-3-3---------------------------------------0-0-0-1-1-1-3-3-3-|

G|--------------------------------------------------|
D|-3-2-0-0-----------------------3-2-0-0------------|
A|----------------------------3----------1-1-1/3-3--|
E|---------1-1-1/3-3--3-4-5-------------------------|

G|----------------------------------------------------------------------------|
D|----------------------------------------------------------------------------|
A|-3h5-5-3-5-5-5---------------2-2-2-3-3-3-4-4-3h5-5-3-5-5-5--1--1-1h3-3-1-3--|
E|---------------1-1-1h3-3-1-3------------------------------------------------|

G|-----------------------------------------------------------------------------------|
D|-----------------------------------------------------------------------------------|
A|-----------------3h5-5-3-5-5-5---------------2-2-2-3-3-3-4-4-3h5-5-3-5-5-1-1-1h3~~~|
E|-0-0-0-1-1-1-3-3---------------1-1-1h3-3-1-3---------------------------------------|

G|-------------------------------------------------------|
D|---------------------------------3-2-0---0-3-2-0---0---|
A|-3-3-3-3-3-3-3-3-3-3-3-3-3-3-3-3-------3---------3-----|
E|-------------------------------------------------------|


************************************

| /  Slide up
| \  Slide down
| ~  Vibrato
| h  Hammer-on


************************************

Almost there ...

Sign in to get your own page with links to favourite songs and more. You are just one click away...

Login with Facebook Login with Google