Log in

One click and you are in

Login with Facebook Login with Google

Why sign up and log in

Guitar Tabs Explorer
Throwing Muses tabs for University

Tabs

tab for song "University" by Throwing Muses
written by Kristin Hersh
submitted by [email protected]
theme one:

--------------|-------------|-------------|---------
--------------|-------------|-------------|---------
-------0---0--|------0---0--|------0---0--|------0--
-----7--------|----5--------|----2--------|----2----
---5-----5----|--3-----3----|--0-----0----|--0------
--------------|-------------|-------------|---------

theme two:

-----------------|------------|------------|--------
-----------------|------------|------------|--------
--------0----0---|-----0---0--|-----0---0--|-----0--
-----12----------|---9--------|---4--------|---5----
--10------10-----|-7-----7----|-2-----2----|-3------
-----------------|------------|------------|--------

The song follows this pattern:

Theme one (x2)
Theme two (x2)
lather, rinse, repeat
ⓘ Guitar tab for 'University' by, formed in 2000

Almost there ...

Sign in to get your own page with links to favourite songs and more. You are just one click away...

Login with Facebook Login with Google