Log in

One click and you are in

Login with Facebook Login with Google

Why sign up and log in

Guitar Tabs Explorer
Thrice bass tabs for The sky is falling

Bass tabs

Good song, no bass tab for it so here is my attempt, only part i'm unsure about is
the rhythm of the chorus but the notes sound right to me anyway.


Intro
G|----7~---------------------7~------------------|
D|-9~---------9~----------9~---------9~----------|
A|-------7~------7~-10~---------7~-------7~-10-9-|
E|-----------------------------------------------|

Verse 1
G|----7~---------------------7~-9~-------------------7~-9~-|
D|-9~---------9~----------9~---------9~-----------9~-------|
A|-------7~------7~-10~-----------------7~-10-9------------|
E|---------------------------------------------------------|


Chorus
G|-----------------------------------------------------------------------------------|
D|----------------------55---5---4---5h7------------------------5/7--5---5---4---5h7-|
A|------------------555----5---5---5------------------------555--------5---5---5-----|
E|-7--5h7p5--5h7p5------------------------777--5h7p5--5h7p5--------------------------|


Verse 2
G|----7~-9~------------------7~---------------------7~----|
D|-9~---------9~----------9~--------9~-----------9~-------|
A|---------------7~-10~--------7~------7~-10-9---------7~-|
E|--------------------------------------------------------|

Repeat Chorus


Bridge (x3)
G|-------------------------------|
D|-------------------------------|
A|---------------------10~--7~---|
E|-7~---10~--5~---7~-------------|

Repeat chorus

Almost there ...

Sign in to get your own page with links to favourite songs and more. You are just one click away...

Login with Facebook Login with Google