Log in

One click and you are in

Login with Facebook Login with Google

Why sign up and log in

Guitar Tabs Explorer
Three Dog Night bass tabs for One

Bass tabs

three_dog_night/one.btab

as played by Joe Shermie

Basstab by Jan Bjorklund, Finland;
jani_bjorklund@yahoo.se
You are welcome to request for basstabs!
Bienvenidos a pedirme transcripciones para el bajo!
Be sure to use a monospaced font!

TablEdited by Jan Bjorklund

Tuning : E A D G 	Time Signature: 4/4

 tempo 120    |        |        |
|----------------------------------------------------------------|
|----------------------- Two bars intro -------------------------|
|----------------------------------------------------------------|
|----------------------------------------------------------------|

 |        |        |        |
|----------------------------------------------------------------|
|------------------------- without bass -------------------------|
|----------------------------------------------------------------|
|----------------------------------------------------------------|

 |        |        |        |
|----------------------------------------------------------------|
|----------------------------------------------------------------|
|----------------------------------------------------------------|
|1---------------------------------------------------------------|

 |        |        |        |
|----------------------------------------------------------------|
|----------------------------------------------------------------|
|----------------------------------------------------------------|
|4---------------------------------------------------------------|

 |        |        |        |
|----------------------------------------------------------------|
|----------------------------------------------------------------|
|1---------------------------------------------------------------|
|----------------------------------------------------------------|

 |        |        |        |
|----------------------------------------------------------3-----|
|------------------------------------------2-----3---------------|
|4-------------------------2-----3-------------------------------|
|----------------------------------------------------------------|

 |        |        |        |
|----------------------------------------------------------------|
|----------------------------------------------------------------|
|----------------------------------------------------------------|
|1---------------------------------------------------------------|

 |        |        |        |
|----------------------------------------------------------------|
|----------------------------------------------------------------|
|----------------------------------------------------------------|
|4---------------------------------------------------------------|

 |        |        |        |
|----------------------------------------------------------------|
|----------------------------------------------------------------|
|1---------------------------------------------------------------|
|----------------------------------------------------------------|

 |        |        |        |
|----------------------------------------------------------3-----|
|------------------------------------------2-----3---------------|
|4-------------------------2-----3-------------------------------|
|----------------------------------------------------------------|

 |        |        |        |
|----------------------------------------------------------------|
|----------------------------------------------------------------|
|----------------------------------------------------------------|
|1---------------------------------------------------------------|

 |        |        |        |
|----------------------------------------------------------------|
|----------------------------------------------------------------|
|----------------------------------------------------------------|
|4---------------------------------------------------------------|

 |        |        |        |
|----------------------------------------------------------------|
|----------------------------------------------------------------|
|1---------------------------------------------------------------|
|----------------------------------------------------------------|

 |        |        |        |
|----------------------------------------------------------3-----|
|------------------------------------------2-----3---------------|
|4-------------------------2-----3-------------------------------|
|----------------------------------------------------------------|

 |        |        |        |
|----------------------------------------------------------------|
|----------------------------------------------------------------|
|----------------------------------------------------------------|
|1---------------------------------------------------------------|

 |        |        |        |
|----------------------------------------------------------------|
|----------------------------------------------------------------|
|----------------------------------------------------------------|
|4---------------------------------------------------------------|

 |        |        |        |
|----------------------------------------------------------------|
|----------------------------------------------------------------|
|1---------------------------------------------------------------|
|----------------------------------------------------------------|

 |        |        |        |
|----------------------------------------------------------3-----|
|------------------------------------------2-----3---------------|
|4-------------------------2-----3-------------------------------|
|----------------------------------------------------------------|

 |        |        |        |
|----------------------------------------------------------------|
|----------------------------------------------------------------|
|----------------------------------------------------------------|
|1---------------------------------------------------------------|

 |        |        |        |
|----------------------------------------------------------------|
|----------------------------------------------------------------|
|----------------------------------------------------------------|
|4---------------------------------------------------------------|

 |        |        |        |
|----------------------------------------------------------------|
|----------------------------------------------------------------|
|1---------------------------------------------------------------|
|----------------------------------------------------------------|

 |        |        |        |
|----------------------------------------------------------3-----|
|------------------------------------------2-----3---------------|
|4-------------------------2-----3-------------------------------|
|----------------------------------------------------------------|

 |        |        |        |
|----------------------------------------------------------------|
|----------------------------------------------------------------|
|----------------------------------------------------------------|
|1---------------1---------------1---------1-----1---------------|

 |        |        |        |
|----------------------------------------------------------------|
|----------------------------------------------------------------|
|----------------------------------------------------------------|
|4---------------4---------------4---------4-----4---------------|

 |        |        |        |
|----------------------------------------------------------------|
|----------------------------------------------------------------|
|1---------------1---------------1---------1-----1---------------|
|----------------------------------------------------------------|

 |        |        |        |
|----------------------------------------------------------3-----|
|------------------------------------------2-----3---------------|
|4---------------4---------2-----3-------------------------------|
|----------------------------------------------------------------|

 |        |        |        |
|----------------------------------------------------------------|
|----------------------------------------------------------------|
|----------------------------------------------------------------|
|1---------------1---------------1-----1---1-----1---------------|

 |        |        |        |
|----------------------------------------------------------------|
|----------------------------------------------------------------|
|----------------------------------------------------------------|
|4---------------4---------------4-----4---4-----4---------------|

 |        |        |        |
|----------------------------------------------------------------|
|----------------------------------------------------------------|
|1-----1---1-----1---------------1-----1---1-----1---------------|
|----------------------------------------------------------------|

 |        |        |        |
|----------------------------------------------------------------|
|------------------------------------------2-----3---------------|
|4-----4---4-----4---------2-----3-------------------------------|
|----------------------------------------------------------------|

 |        |        |        |
|----------------------------------------------------------------|
|3-------------------------------3-------------------------------|
|----------------3-----------------------------------------------|
|------------------------------------------------3---------------|

 |        |        |        |
|----------------------------------------------------------------|
|----------------------------------------------------------------|
|----------------------------------------------------------------|
|----------------------------------------------------------------|

 |        |        |        |
|----------------------------------------------------------------|
|----------------------------------------------------------------|
|----------------------------------------------------------------|
|----------------------------------------------------------------|

 |        |        |        |
|----------------------------------------------------------------|
|----------------------------------------------------------------|
|----------------------------------------------------------------|
|----------------------------------------------------------0-----|

 |        |        |        |
|----------------------------------------------------------------|
|--------------------------1-----3-------------------------------|
|----------------3-------------------------3---------------4-----|
|1---------0-----------------------------------------------------|

 |        |        |        |
|----------------------------------------------------------------|
|----------------------------------------------------------------|
|----------------------------------------------------------------|
|----------------------------------------------------------------|

 |        |        |        |
|----------------------------------------------------------------|
|----------------------------------------------------------------|
|----------------------------------------------------------------|
|----------------------------------------------------------------|

 |        |        |        |
|----------------------------------------------------------------|
|----------------------------------------------------------------|
|----------------------------------------------------------------|
|1---------------------------------------------------------------|

 |        |        |        |
|----------------------------------------------------------------|
|----------------------------------------------------------------|
|----------------------------------------------------------------|
|1-----1---1-----1-----1---1-----1-----1---1-----1-----1---1-----|

 |        |        |        |
|----------------------------------------------------------------|
|----------------------------------------------------------------|
|----------------------------------------------------------------|
|1---------0-----1---------0-----1-----1---------1---------0-----|

 |        |        |        |
|----------------------------------------------------------------|
|----------------------------------------------------------------|
|----------------------------------------------------------------|
|4-----4---4-----4---------0-----4-----4---------4---------0-----|

 |        |        |        |
|----------------------------------------------------------------|
|----------------------------------------------------------------|
|1-----1---1-----1---------0-----1-----1---------1---------0-----|
|----------------------------------------------------------------|

 |        |        |        |
|----------------------------------------------------------3-----|
|------------------------------------------2-----3---------------|
|4-----4---------4---------2-----3-------------------------------|
|----------------------------------------------------------------|

 |        |        |        |
|----------------------------------------------------------------|
|----------------------------------------------------------------|
|----------------------------------------------------------------|
|1-----1---1-----1---------0-----1-----1---1-----1-------0-------|

 |        |        |        |
|----------------------------------------------------------------|
|----------------------------------------------------------------|
|----------------------------------------------------------0-----|
|4-----4---4-----4---------0-----4-----4---4-----4---------------|

 |        |        |        |
|----------------------------------------------------------------|
|----------------------------------------------------------------|
|1-----1---1-----1---------0-----1-----1---1-----1---------0-----|
|----------------------------------------------------------------|

 |        |        |        |
|----------------------------------------------------------3-----|
|------------------------------------------2-----3---------------|
|4-----4---4-----4---------2-----3-------------------------------|
|----------------------------------------------------------------|

 |        |        |        |
|----------------------------------------------------------------|
|----------------------------------------------------------------|
|----------------------------------------------------------------|
|1---------0-----1---------0-----1-----1---1-----1---------0-----|

 |        |        |        |
|----------------------------------------------------------------|
|----------------------------------------------------------------|
|----------------------------------------------------------0-----|
|4-----4---4-----4---------0-----4-----4---4-----4---------------|

 |        |        |        |
|----------------------------------------------------------------|
|----------------------------------------------------------------|
|1-----1---1-----1---------0-----1-----1---1-----1---------0-----|
|----------------------------------------------------------------|

 |        |        |        |
|----------------------------------------------------------3-----|
|------------------------------------------2-----3---------------|
|4-----4---4-----4---------2-----3-------------------------------|
|----------------------------------------------------------------|

 |        |        |        |
|----------------------------------------------------------------|
|----------------------------------------------------------------|
|----------------------------------------------------------------|
|1---------0-----1---------0-----1-----1---1-----1---------0-----|

 |        |        |        |
|----------------------------------------------------------------|
|----------------------------------------------------------------|
|----------------------------------------------------------0-----|
|4-----4---4-----4---------0-----4-----4---4-----4---------------|

 |        |        |        |
|----------------------------------------------------------------|
|----------------------------------------------------------------|
|1-----1---1-----1---------0-----1-----1---1-----1---------0-----|
|----------------------------------------------------------------|

 |        |        |        |
|----------------------------------------------------------------|
|----------------------------------------------------------------|
|4---------------4---------2-----3-----3---3-----3---------------|
|----------------------------------------------------------------|

 |        |        |        |
|----------------------------------------------------------------|
|----------------------------------------------------------------|
|----------------------------------------------------------------|
|1---------------------------------------------------------------|

 |        |        |        |
|----------------------------------------------------------------|
|----------------------------------------------------------------|
|----------------------------------------------------------------|
|----------------------------------------------------------------|

 |        |        |        |
|----------------------------------------------------------------|
|----------------------------------------------------------------|
|----------------------------------------------------------------|
|----------------------------------------------------------------|

 |        |        |        |
|----------------------------------------------------------------|
|----------------------------------------------------------------|
|----------------------------------------------------------------|
|----------------1-----------------------------------------------|

 |        |        |        |
|----------------------------------------------------------------|
|----------------------------------------------------------------|
|----------------------------------------------------------------|
|1---------------1---------0-----1-----1---1-----1---------0-----|

 |        |        |        |
|----------------------------------------------------------------|
|----------------------------------------------------------------|
|----------------------------------------------------------0-----|
|4---------------4---------0-----4-----4---4-----4---------------|

 |        |        |        |
|----------------------------------------------------------------|
|----------------------------------------------------------------|
|1---------------1---------------1-----1---------1---------------|
|----------------------------------------------------------------|

 |        |        |        |
|----------------------------------------------------------3-----|
|------------------------------------------2-----3---------------|
|4-----4---------4---------2-----3-------------------------------|
|----------------------------------------------------------------|

 |        |        |        |
|----------------------------------------------------------------|
|----------------------------------------------------------------|
|----------------------------------------------------------------|
|1---------0-----1---------0-----1-----1---1-----1---------0-----|

 |        |        |        |
|----------------------------------------------------------------|
|----------------------------------------------------------------|
|----------------------------------------------------------0-----|
|4-----4---------4---------0-----4-----4---4-----4---------------|

 |        |        |        |
|----------------------------------------------------------------|
|----------------------------------------------------------------|
|1-----1---------1---------0-----1-----1---1-----1---------0-----|
|----------------------------------------------------------------|

 |        |        |        |
|----------------------------------------------------------3-----|
|------------------------------------------2-----3---------------|
|4-----4---------4---------2-----3-------------------------------|
|----------------------------------------------------------------|

 |        |        |        |
|----------------------------------------------------------------|
|----------------------------------------------------------------|
|----------------------------------------------------------------|
|1---------0-----1---------0-----1-----1---1-----1---------0-----|

 |        |        |        |
|----------------------------------------------------------------|
|----------------------------------------------------------------|
|----------------------------------------------------------0-----|
|4-----4---------4---------0-----4-----4---4-----4---------------|

 |        |        |        |
|----------------------------------------------------------------|
|----------------------------------------------------------------|
|1-----1---------1---------0-----1-----1---------1---------0-----|
|----------------------------------------------------------------|

 |        |        |        |
|----------------------------------------------------------3-----|
|------------------------------------------2-----3---------------|
|4-----4---------4---------2-----3-------------------------------|
|----------------------------------------------------------------|

 |        |        |        |
|----------------------------------------------------------------|
|----------------------------------------------------------------|
|----------------------------------------------------------------|
|1---------0-----1---------0-----1-----1---------1---------0-----|

 |        |        |        |
|----------------------------------------------------------------|
|----------------------------------------------------------------|
|----------------------------------------------------------0-----|
|4-----4---4-----4---------0-----4-----4---4-----4---------------|

 |        |        |        |
|----------------------------------------------------------------|
|----------------------------------------------------------------|
|1---------1-----1---------0-----1-----1---1-----1---------0-----|
|----------------------------------------------------------------|

 |        |        |        |
|----------------------------------------------------------3-----|
|------------------------------------------2-----3---------------|
|4-----4---------4---------2-----3-------------------------------|
|----------------------------------------------------------------|

 |        |        |        |
|----------------------------------------------------------------|
|----------------------------------------------------------------|
|----------------------------------------------------------------|
|1---------0-----1---------0-----1-----1---1-----1---------0-----|

 |        |        |        |
|----------------------------------------------------------------|
|----------------------------------------------------------------|
|----------------------------------------------------------0-----|
|4-----4---4-----4---------0-----4-----4---4-----4---------------|

 |        |        |        |
|----------------------------------------------------------------|
|----------------------------------------------------------------|
|1---------1-----1---------0-----1-----1---1-----1---------0-----|
|----------------------------------------------------------------|

 |        |        |        |
|----------------------------------------------------------3-----|
|------------------------------------------2-----3---------------|
|4-----4---4-----4---------2-----3-------------------------------|
|----------------------------------------------------------------|

 |        |        |        |
|----------------------------------------------------------------|
|----------------------------------------------------------------|
|----------------------------------------------------------------|
|1---------0-----1---------0-----1-----1---1-----1---------0-----|

 |        |        |        |
|----------------------------------------------------------------|
|----------------------------------------------------------------|
|----------------------------------------------------------0-----|
|4-----4---------4---------0-----4-----4---4-----4---------------|

 |        |        |        |
|----------------------------------------------------------------|
|----------------------------------------------------------------|
|1-----1---1-----1---------0-----1-----1---1-----1---------0-----|
|----------------------------------------------------------------|

 |        |        |        |
|----------------------------------------------------------3-----|
|------------------------------------------2-----3---------------|
|4-----4---4-----4---------2-----3-------------------------------|
|----------------------------------------------------------------|

 |        |        |        |
|----------------------------------------------------------------|
|----------------------------------------------------------------|
|----------------------------------------------------------------|
|1---------0-----1---------0-----1-----1---1-----1---------0-----|

 |        |        |        |
|----------------------------------------------------------------|
|----------------------------------------------------------------|
|----------------------------------------------------------0-----|
|4-----4---------4---------0-----4-----4---4-----4---------------|

 |        |        |        |
|----------------------------------------------------------------|
|----------------------------------------------------------------|
|1-----1---------1---------0-----1-----1---------1---------0-----|
|----------------------------------------------------------------|

 |        |        |        |
|----------------------------------------------------------------|
|----------------------------------------------------------------|
|4-----4---------4---------2-----3---------------3---------------|
|----------------------------------------------------------------|

 |        |        |        |
|----------------------------------------------------------------|
|3-------------------------------3-------------------------------|
|----------------3-------------------------------0---------------|
|----------------------------------------------------------------|

 |        |        |        |
|----------------------------------------------------------------|
|----------------------------------------------------------------|
|----------------------------------------------------------------|
|4---------------------------------------------------------------|



_____________________________________________________

ⓘ Bass guitar tab for 'One' by Three Dog Night, a classic rock band formed in 1968 from Los Angeles, CA . They are no longer active.

Almost there ...

Sign in to get your own page with links to favourite songs and more. You are just one click away...

Login with Facebook Login with Google