Log in

One click and you are in

Login with Facebook Login with Google

Why sign up and log in

Guitar Tabs Explorer
Three Days Grace tabs for Three days grace

Guitar tabs with lyrics

Full first album of Three days grace, self titled(Three days grace).

Note: tunings may vary.
I didn't write these tabs.

list of songs:
1: Burn
2: Just Like You
3: I Hate Everything About You
4: Home
5: Scared
6: Let You Down
7: Now Or Never
8: Born Like This
9: Drown
10:Wake Up
11:Take Me Under
12:Overrated
_______________________________________________________________________________________

1.Burn


Tabbed by: Alex Pavlov

Tuning: Dropped A chord diagramD MajorD (D,A,D,G,B,E)

Yeah, it's me again with yet another Three Days Grace tab. Awesome guitar in this
song, I repeated a lot of the intro because some the the parts were slightly
different. Enjoy. I'll post the remaining songs in a couple of days, and finally,
there'll be the whole album.


Intro
|----------------------------------------------------------|
|----------------------------------------------------------|
|----------------------------------------------------------|
|----------------------------------------------------------|   (x3)
|----------------------------------------------------------|
|-0-10-12-10-12-10-0-10-12-10-12-10-0-10-12-13-------------|

|--------------------------------------------|
|--------------------------------------------|
|--------------------------------------------|
|--------------------------------------------|
|--------------------------------------------|
|-0-10-12-10-12-10-0-10-12/------------------|

|--------------------------------------------|
|--------------------------------------------|
|--------------------------------------------|
|-0-10-12--12-10-0-10-12--12-10--10--12h13---|   (x4)
|-0-10-12--12-10-0-10-12--12-10--10--12h13---|
|-0-10-12--12-10-0-10-12--12-10--10--12h13---|

|--------------------------------------|
|--------------------------------------|
|--------------------------------------|
|-0--0--12-10--0-12--0-10--10-12h13----|  (x3)
|-0--0--12-10--0-12--0-10--10-12h13----|
|-0--0--12-10--0-12--0-10--10-12h13----|

|------------------------------------------|
|------------------------------------------|
|------------------------------------------|
|-0--0--12-10--0-12/-----------------------|
|-0--0--12-10--0-12/-----------------------|
|-0--0--12-10--0-12/-----------------------|


Verse
|---------------------------------------------|
|---------------------------------------------|
|---------------------------------------------|
|-6--6--6--6--6--6--6--7----------------------|
|-5--5--5--5--5--5--5--5----------------------|
|-0-------------------------------------------|
						(x4)
(with tremolo)
|--18~--18~--18~--18~--18~--18~--18~-----------|
|----------------------------------------------|
|----------------------------------------------|
|----------------------------------------------|
|----------------------------------------------|
|----------------------------------------------|

|------------------------------------------|
|------------------------------------------|
|--/9--------------------------------------|
|--/10--------7-7-7-7-8p7-7-10-------------|
|--/8---------7-7-7-7-8p7-7-10-------------|
|-------------7-7-7-7-8p7-7-10-------------|


Chorus
|------------------------------------------------------------------------|
|------------------------------------------------------------------------|
|------------------------------------------------------------------------|
|-0--0--7-7----10----10-10--8-8-5-5--5-5--5-3---3-1---7-7-7-7-8p7-7-10---|(x2)
|-0--0--7-7----8-----8--8---8-8-5-5--5-5--5-3---3-1---7-7-7-7-8p7-7-10---|
|-0--0--7-7----8-----8--8---8-8-5-5--5-5--5-3---3-1---7-7-7-7-8p7-7-10---|


Verse


Chorus


Bridge
|------------------------------------------------|
|------------------------------------------------|
|------------------------------------------------|
|-0-10-12-10-12-10-0-10-12-10-12-10-0-10-12-13---|  (x2)
|-0-10-12-10-12-10-0-10-12-10-12-10-0-10-12-13---|
|-0-10-12-10-12-10-0-10-12-10-12-10-0-10-12-13---|

|--------------------------------------------|
|--------------------------------------------|
|--------------------------------------------|
|-0-10-12--12-10-0-10-12--12-10--10--12h13---|   (x2)
|-0-10-12--12-10-0-10-12--12-10--10--12h13---|
|-0-10-12--12-10-0-10-12--12-10--10--12h13---|

|----------------------------------------------------------------------------|
|---------------------------9-9-9-10-10-10-10-10-10-10-10-10-10-10^-9--------|
|----------------------------------------------------------------------------|
|---6--6--6--6--6--6--7------------------------------------------------------|(x2)
|---5--5--5--5--5--5--5------------------------------------------------------|
|----------------------------------------------------------------------------|
	                  (you can bend the 9 instead)

|---------------------------------------------------|
|---------------------------------------------------|
|---------------------------------------------------|
|--3-----5------3-------7-7-7-7---------------------|
|--3-----5------3-------7-7-7-7---------------------|
|--3-----5------3-------7-7-7-7---------------------|


Chorus


Outro
|------------------------------------------------|
|------------------------------------------------|
|------------------------------------------------|
|-0-10-12-10-12-10-0-10-12-10-12-10-0-10-12-13---|  (x2)
|-0-10-12-10-12-10-0-10-12-10-12-10-0-10-12-13---|
|-0-10-12-10-12-10-0-10-12-10-12-10-0-10-12-13---|

|--------------------------------------------|
|--------------------------------------------|
|--------------------------------------------|
|-0-10-12--12-10-0-10-12--12-10--10--12h13---|   (x2)
|-0-10-12--12-10-0-10-12--12-10--10--12h13---|
|-0-10-12--12-10-0-10-12--12-10--10--12h13---|

|---------------------------------------------|
|---------------------------------------------|
|---------------------------------------------|
|---------0-12-10-0-10-12--12-10--10--12h13---|
|---------0-12-10-0-10-12--12-10--10--12h13---|
|---------0-12-10-0-10-12--12-10--10--12h13---|

|--------------------------------------------|
|--------------------------------------------|
|--------------------------------------------|
|-0-10-12--12-10-0-10-12--12-10--10--12h13---|
|-0-10-12--12-10-0-10-12--12-10--10--12h13---|
|-0-10-12--12-10-0-10-12--12-10--10--12h13---|

|---------------------------------------------|
|---------------------------------------------|
|---------------------------------------------|
|-------0-0-12-10-0-10-12--12-10--10--12h13---| (x3)
|-------0-0-12-10-0-10-12--12-10--10--12h13---|
|-------0-0-12-10-0-10-12--12-10--10--12h13---|

|----------------------------------------------------|
|----------------------------------------------------|
|----------------------------------------------------|
|-------0-0-12-10-0-10-12--12-12-12-10-10-10-12h13---|
|-------0-0-12-10-0-10-12--12-12-12-10-10-10-12h13---|
|-------0-0-12-10-0-10-12--12-12-12-10-10-10-12h13---|

|---------------------------------------|
|---------------------------------------|
|---------------------------------------|
|-0-0-0--12-10--0-12--0-10--10-12h13----|  (x4)
|-0-0-0--12-10--0-12--0-10--10-12h13----|
|-0-0-0--12-10--0-12--0-10--10-12h13----|

Email me at dragin22@hotmail.com.

______________________________________________________________________

2.Just Like You


Just Like You-Three Days Grace
Three Days Grace

Drop Db:
A chord diagramDbDb A chord diagramAbAb A chord diagramDbDb A chord diagramGbGb A chord diagramBb majorBb A chord diagramEb MajorEb


Intro:

e-----------------------------------------------------------------|
b-----------------------------------------------------------------|
g-----------------------------------------------------------------|
d-9-7-4-0-9-9----9-7-4-0-9-9----9-7-4-0-9-9----7-----x-x-9--x-x-9-|
a-9-7-4-0-9-9----9-7-4-0-9-9----9-7-4-0-9-9----5-----x-x-7--x-x-7-|
d-9-7-4-0-9-9----9-7-4-0-9-9----9-7-4-0-9-9----5-----x-x-7--x-x-7-|


Verse:
(x2)
e-----------------------------------------------------------------|
b-----------------------------------------------------------------|
g-----------------------------------------------------------------|
d-9-7-4-0-9-9----9-7-4-0-9-9----9-7-4-0-9-9----7-----x-x-9--x-x-9-|
a-9-7-4-0-9-9----9-7-4-0-9-9----9-7-4-0-9-9----5-----x-x-7--x-x-7-|
d-9-7-4-0-9-9----9-7-4-0-9-9----9-7-4-0-9-9----5-----x-x-7--x-x-7-|

i could be mean i could be angry
you know i could be just like you
i could be fake i could be stupid
you know i could be just like you


Pre Chorus: (2 gtrs. arr. for 1)

  A chord diagramF#5F#5          A chord diagramG5G5           A chord diagramF#5F#5         A chord diagramGsus2Gsus2        A chord diagramAsus2Asus2
e-----------------------------------------------------------------|
b-----------------------------------------------------------------|
g-6~~~~~~~~~~~-7~~~~~~~~~~~-6~~~~~~~~~----------------------------|
d-4------------5------------4-----------7--7--7--7---x-x-9--x-x-9-|
a-4------------5------------4-----------5--5--5--5---x-x-7--x-x-7-|
d-4------------5------------4-----------5--5--5--5---x-x-7--x-x-7-|
                                      pm*  *  *  *

A chord diagramF#5F#5
    you thought you were standing beside me
A chord diagramG5G5
    you were only in my way
A chord diagramF#5F#5                                        A chord diagramGsus2Gsus2     A chord diagramAsus2Asus2
    you’re wrong if you think that i’ll be just like you


Chorus: (x2)
  A chord diagramB5B5          A chord diagramD5D5          A chord diagramA5A5          A chord diagramC5C5
e----------------------------------------------------|
b----------------------------------------------------|
g----------------------------------------------------|
d-9-----9--9--0-----0--0--7-----7--7--10------10--10-|
a-9-----9--9--0-----0--0--7-----7--7--10------10--10-|
d-9-----9--9--0-----0--0--7-----7--7--10------10--10-|

  A chord diagramB5B5          A chord diagramD5D5          A chord diagramGsus2Gsus2        A chord diagramAsus2Asus2
e----------------------------------------------------|
b----------------------------------------------------|
g----------------------------------------------------|
d-9-----9--9--0-----0--0--7--7--7--7---x-x-9--x-x-9--|
a-9-----9--9--0-----0--0--5--5--5--5---x-x-7--x-x-7--|
d-9-----9--9--0-----0--0--5--5--5--5---x-x-7--x-x-7--|

A chord diagramB5B5                   A chord diagramD5D5
you thought you were there to guide me
A chord diagramA5A5               A chord diagramC5C5
   you were only in my way
A chord diagramB5B5                  A chord diagramD5D5                 A chord diagramGsusGsus      A chord diagramAsus2Asus2
you’re wrong if you think that i’ll be just like you


Verse:
(x2)
e-----------------------------------------------------------------|
b-----------------------------------------------------------------|
g-----------------------------------------------------------------|
d-9-7-4-0-9-9----9-7-4-0-9-9----9-7-4-0-9-9----7-----x-x-9--x-x-9-|
a-9-7-4-0-9-9----9-7-4-0-9-9----9-7-4-0-9-9----5-----x-x-7--x-x-7-|
d-9-7-4-0-9-9----9-7-4-0-9-9----9-7-4-0-9-9----5-----x-x-7--x-x-7-|

i could be calm i could be ruthless
you know i could be just like you
i could be weak i could be senseless
you know i could be just like you


Pre Chorus


Chorus (x2)


Bridge: (x2)

  A chord diagramGsus2Gsus2                A chord diagramD5D5                        A chord diagramB5B5 A chord diagramA5A5 A chord diagramF#5F#5 A chord diagramD5D5
e------------------------------------------------------------|
b------------------------------------------------------------|
g------------------------------------------------------------|
d-7--7--7--7--7--7--7--0---0--0--0--0--0--0--0---9--7--4--0--|
a-5--5--5--5--5--5--5--0---0--0--0--0--0--0--0---9--7--4--0--|
d-5--5--5--5--5--5--5--0---0--0--0--0--0--0--0---9--7--4--0--|

A chord diagramGsus2Gsus2         A chord diagramD5D5          A chord diagramB5B5 A chord diagramA5A5 A chord diagramF#5F#5 A chord diagramD5D5
on      my    own

  A chord diagramE5E5                   A chord diagramA5A5                        A chord diagramB5B5 A chord diagramA5A5 A chord diagramF#5F#5 A chord diagramD5D5
e------------------------------------------------------------|
b------------------------------------------------------------|
g------------------------------------------------------------|
d-2--2--2--2--2--2--2--7---7--7--7--7--7--7--7---9--7--4--0--|
a-2--2--2--2--2--2--2--7---7--7--7--7--7--7--7---9--7--4--0--|
d-2--2--2--2--2--2--2--7---7--7--7--7--7--7--7---9--7--4--0--|

A chord diagramE5E5                              A chord diagramA5A5        A chord diagramB5B5 A chord diagramA5A5 A chord diagramF#5F#5 A chord diagramD5D5
‘cause i can’t take living with you
A chord diagramGsus2Gsus2      A chord diagramD5D5         A chord diagramB5B5 A chord diagramA5A5 A chord diagramF#5F#5 A chord diagramD5D5
i’m   a  - lone
A chord diagramE5E5                         A chord diagramA5A5             A chord diagramB5B5 A chord diagramA5A5 A chord diagramF#5F#5 A chord diagramD5D5
so i won’t turn out like you want me to


Pre Chorus

Chorus (x2)


Outro:

e-----------------------------------------------------------------|
b-----------------------------------------------------------------|
g-----------------------------------------------------------------|
d-9-7-4-0-9-9----9-7-4-0-9-9----9-7-4-0-9-9----7-----x-x-9--x-x-9-|
a-9-7-4-0-9-9----9-7-4-0-9-9----9-7-4-0-9-9----5-----x-x-7--x-x-7-|
d-9-7-4-0-9-9----9-7-4-0-9-9----9-7-4-0-9-9----5-----x-x-7--x-x-7-|

i could be mean i could be angry
you know i could be just like you


that’s all

trevor jones
timmy91199@yahoo.ca

____________________________________________________________________

3.I Hate Everything About You


Three Days Grace
I Hate Everything About You
Drop A chord diagramD MajorD Tuning
(Low to High)D-A-D-G-B-E

Guitar 1 (Acoustic)

E------------------------------------------------------------------|
B------------------------------------------------------------------|
G-----6--------6--------6-----6-----4-6----4-6---4-6---4-6---------|
D---4-6------4-6------4-6---4-6-----4-6----4-6---4-6---4-6---------|
A---4--------4--------4-----4-----0-------0-----0-----0------------|
D-4------0-4------0-4------0-----0-------0-----0-----0-------------|
Repeat Riff Until Pre-Chorus

Only When I Stop.....
Guitar 2
E--------------------------------------------------0----------------|
B--------------------------------------------------3----------------|
G-4------------------------------------------------2----------------|
D-2----------------------------------0-------------0----------------|
A-2----------------------------------0-------------0----------------|
D-2----------------------------------0-------------0----------------|


Chorus
E-------------------------------------------------------------------|
B-------------------------------------------------------------------|
G--6-6----6-6-----------9-9-9-9-9-9-------9-4-4-4-4-4-4-------------|
D--4-4----0-0-----------7-7-7-7-7-7-------7-2-2-2-2-2-2-------------|
A--4-4----0-0-----------7-7-7-7-7-7-------7-2-2-2-2-2-2-------------|
D--4-4----0-0-----------7-7-7-7-7-7-------7-2-2-2-2-2-2-------------|


          Why Do I......
E-------------------------------------------------------------------|
B-------------------------------------------------------------------|
G-6-6-6-6-6-6----6-6-6-6-6-6-6-------4-4-4-4-4-4---x----------------|
D-4-4-4-4-4-4----4-0-0-0-0-0-0-------2-2-2-2-2-2---x----------------|
A-4-4-4-4-4-4----4-0-0-0-0-0-0-------2-2-2-2-2-2---x--7-------------|
D-4-4-4-4-4-4----4-0-0-0-0-0-0-------2-2-2-2-2-2---x--7----6--------|


Interlude
Clean
    Why                 do     I      Love    You
E-----------------------------------0------------------------------|
B-----------------------------3-------3----------------------------|
G--------------------------6------------6--------------------------|
D------------------------------------------------------------------|
A------------------------------------------------------------------|
D------------------------------------------------------------------|


Bridge
(Distortion)
  Only When I Start To Think About You I Know
E-----------------------------------------------------------------|
B-----------------------------------------------------------------|
G-13-13-13-14---14-14-16-16--13-13-13-14--14-14-16-16-------------|
D--x--x--x--x----x--x--x--x---x--x--x--x---x--x--x--x-------------|
A-11-11-11-12---12-12-14-14--11-11-11-12--12-12-14-14-------------|
D-----------------------------------------------------------------|


E-----------------------------------------------------------------|
B-----------------------------------------------------------------|
G-13-13-13-14---14-14-16-16---13-13-13--14/13----9----------------|
D--x--x--x--x----x--x--x--x----x--x--x---x-------x----------------|
A-11-11-11-12---12-12-14-14---11-11-11--12/11----7----------------|
D-----------------------------------------------------------------|

*This next riff is played with the Bridge Above!!
(Distortion)

E------------------------------------------------------------------|
B------------------------------------------------------------------|
G--7-7-7-7-----7-7-7---9-9-9-9-----9-9-9---11-11-11-11----11-11-11-|
D--x-x-x-x-----x-x-x---x-x-x-x-----x-x-x----x--x--x--x-----x--x--x-|
A--5-5-5-5-----5-5-5---7-7-7-7-----7-7-7----9--9--9--9-----9--9--9-|
D------------------------------------------------------------------|

E-----------------------------------------------------------------|
B-----------------------------------------------------------------|
G--9-9-9-9-9----9-------------------------------------------------|
D--x-x-x-x-x----x-------------------------------------------------|
A--7-7-7-7-7----7-------------------------------------------------|
D-----------------------------------------------------------------|

Only When You Start....

E-----------------------------------------------------------------|
B-----------------------------------------------------------------|
G-9---9---9---9---9---9---9---9---9---9---9---9---9---9-----------|
D-x---x---x---x---x---x---x---x---x---x---x---x---x---x-----------|
A-7---7---7---7---7---7---7---7---7---7---7---7---7---7-----------|
D-----------------------------------------------------------------|

***End Song With Opening Riff
This Song Is 100% Correct.

________________________________________________________________

4.Home


Tabber: Steven Banks [Squall_inside@hotmail.com]
I don't own this song.

Tuning: Drop C. Low to high (C, G, C, F, A, A chord diagramD MajorD)


Intro:

Guitar One
|----------------------------|-----------------------------|
|----------------------------|-----------------------------|
|----------------------------|-----------------------------|
|0-0---0-0---10-10--5-5------|-0-0---0-0---1-1---5-5-------|
|0-0---0-0---8--8---5-5------|-0-0---0-0---1-1---3-3-------|
|0-0---0-0---8--8---5-5------|-0-0---0-0---1-1-------------|

Guitar Two
|---17----17-----18----20-18-|----17----17-----18----20-18-|
|----------------------------|-----------------------------|
|----------------------------|-----------------------------|
|----------------------------|-----------------------------|
|----------------------------|-----------------------------|
|----------------------------|-----------------------------|

Guitar One
|------------------------------------------|--------------------------------------------|
|------------------------------------------|--------------------------------------------|
|------------------------------------------|--------------------------------------------|
|0-0-x-x-x-0-0-x-x-x-10-10-x-x-x-5-5-x-x-x-|-0-0-x-x-x-0-0-x-x-x-1-1-x-x-x-5-5-x-x-x----|
|0-0-x-x-x-0-0-x-x-x-8--8--x-x-x-5-5-x-x-x-|-0-0-x-x-x-0-0-x-x-x-1-1-x-x-x-3-3-x-x-x----|
|0-0-x-x-x-0-0-x-x-x-8--8--x-x-x-5-5-x-x-x-|-0-0-x-x-x-0-0-x-x-x-1-1-x-x-x--------------|

Guitar Two
|-----17--------17----------18-------20-18-|------17---------17--------18-------20-18-17|
|------------------------------------------|--------------------------------------------|
|------------------------------------------|--------------------------------------------|
|------------------------------------------|--------------------------------------------|
|------------------------------------------|--------------------------------------------|
|------------------------------------------|--------------------------------------------|


Verse:

Guitar One
|----------------------------------------------------------------------|
|----------------------------------------------------------------------|
|----------------------------------------------------------------------|
|----------------------------------------------------------------------|
|----------------------------------------------------------------------|
|------------------------------------------0-3p0-0-5p0-0-7p0-0-8-10-12-|(do twice)

Guitar Two
|--------------------|---------------------|
|--10---10---10---10-|---11---11---11---11-|
|7----7----7----7----|-7----7----7----7----|
|--------------------|---------------------|
|--------------------|---------------------|
|--------------------|---------------------|


Chorus:

Guitar One and Two:
|-----------------|----0-----------|----0------------|----0-------------|
|-----------------|----3-----------|----3------------|----3-------------|
|-----------------|----2-----------|----2------------|----2-------------|
|---------10--5---|-0------1---5---|-0------10---5---|-0------1-----5---|
|0-0-0-0--8---5---|-0------1---3---|-0------8----5---|-0------1-----3---|
|0-0-0-0--8---5---|-0------1-------|-0------8----5---|-0------1---------|

Better off alone
Guitar One
|----------------------------|-----------------------------|
|----------------------------|-----------------------------|
|----------------------------|-----------------------------|
|0-0---0-0---10-10--5-5------|-0-0---0-0---1-1---5-5-------|
|0-0---0-0---8--8---5-5------|-0-0---0-0---1-1---3-3-------|
|0-0---0-0---8--8---5-5------|-0-0---0-0---1-1-------------|

Guitar Two
|---17----17-----18----20-18-|----17----17-----18----20-18-|
|----------------------------|-----------------------------|
|----------------------------|-----------------------------|
|----------------------------|-----------------------------|
|----------------------------|-----------------------------|
|----------------------------|-----------------------------|

Guitar One
|----------------------------|
|----------------------------|
|----------------------------|
|----------------------------|
|----------------------------|
|0-3p0-0-5p0-0-7p0-0-8-10-12-|


Verse:

Guitar One
|----------------------------------------------------------------------|
|----------------------------------------------------------------------|
|----------------------------------------------------------------------|
|----------------------------------------------------------------------|
|----------------------------------------------------------------------|
|------------------------------------------0-3p0-0-5p0-0-7p0-0-8-10-12-|(do twice)

Guitar Two
|--------------------|---------------------|
|--10---10---10---10-|---11---11---11---11-|
|7----7----7----7----|-7----7----7----7----|
|--------------------|---------------------|
|--------------------|---------------------|
|--------------------|---------------------|


Chorus:

Guitar One and Two:
|-----------------|----0-----------|----0------------|----0-------------|
|-----------------|----3-----------|----3------------|----3-------------|
|-----------------|----2-----------|----2------------|----2-------------|
|---------10--5---|-0------1---5---|-0------10---5---|-0------1-----5---|
|0-0-0-0--8---5---|-0------1---3---|-0------8----5---|-0------1-----3---|
|0-0-0-0--8---5---|-0------1-------|-0------8----5---|-0------1---------|

Better off alone
Guitar One
|----------------------------|-----------------------------|
|----------------------------|-----------------------------|
|----------------------------|-----------------------------|
|0-0---0-0---10-10--5-5------|-0-0---0-0---1-1---5-5-------|
|0-0---0-0---8--8---5-5------|-0-0---0-0---1-1---3-3-------|
|0-0---0-0---8--8---5-5------|-0-0---0-0---1-1-------------|

Guitar Two
|---17----17-----18----20-18-|----17----17-----18----20-18-|
|----------------------------|-----------------------------|
|----------------------------|-----------------------------|
|----------------------------|-----------------------------|
|----------------------------|-----------------------------|
|----------------------------|-----------------------------|

Guitar One
|------------------------------------------|--------------------------------------------|
|------------------------------------------|--------------------------------------------|
|------------------------------------------|--------------------------------------------|
|0-0-x-x-x-0-0-x-x-x-10-10-x-x-x-5-5-x-x-x-|-0-0-x-x-x-0-0-x-x-x-1-1-x-x-x-5-5-x-x-x----|
|0-0-x-x-x-0-0-x-x-x-8--8--x-x-x-5-5-x-x-x-|-0-0-x-x-x-0-0-x-x-x-1-1-x-x-x-3-3-x-x-x----|
|0-0-x-x-x-0-0-x-x-x-8--8--x-x-x-5-5-x-x-x-|-0-0-x-x-x-0-0-x-x-x-1-1-x-x-x--------------|

Guitar Two
|-----17--------17----------18-------20-18-|------17---------17--------18-------20-18-17|
|------------------------------------------|--------------------------------------------|
|------------------------------------------|--------------------------------------------|
|------------------------------------------|--------------------------------------------|
|------------------------------------------|--------------------------------------------|
|------------------------------------------|--------------------------------------------|


Bridge:

Guitar One [this part is actually bass, but you can turn your volume knob down and play along]
|--------------------------------|
|--------------------------------|
|--------------------------------|
|--------------------------------|
|--------------------------------|
|0-0-0-0-0-0-0-0-8-8-8-8-5-5-5-5-| (x3)

Guitar Two:
|------------------------|
|------------------------|
|------------------------|
|------------------------|
|------------------------|
|0-0-0-0-0-0-0-0-1-1-1-1-|  I'm better off alone


Chorus:

Guitar One and Two:
|-----------------|----0-----------|----0------------|----0-------------|
|-----------------|----3-----------|----3------------|----3-------------|
|-----------------|----2-----------|----2------------|----2-------------|
|---------10--5---|-0------1---5---|-0------10---5---|-0------1-----5---|
|0-0-0-0--8---5---|-0------1---3---|-0------8----5---|-0------1-----3---|
|0-0-0-0--8---5---|-0------1-------|-0------8----5---|-0------1---------|

Better off alone
Guitar One
|----------------------------|-----------------------------|
|----------------------------|-----------------------------|
|----------------------------|-----------------------------|
|0-0---0-0---10-10--5-5------|-0-0---0-0---1-1---5-5-------|
|0-0---0-0---8--8---5-5------|-0-0---0-0---1-1---3-3-------|
|0-0---0-0---8--8---5-5------|-0-0---0-0---1-1-------------|

Guitar Two
|---17----17-----18----20-18-|----17----17-----18----20-18-|
|----------------------------|-----------------------------|
|----------------------------|-----------------------------|
|----------------------------|-----------------------------|
|----------------------------|-----------------------------|
|----------------------------|-----------------------------| (repeat)

Ends with an open A chord diagramD MajorD

There, that's all in order. I'm almost 100% sure it's correct. Please rate.

________________________________________________________________________

5.Scared


SCARED BY THREE DAYS GRACE
<--------------------------------------->
<--------------------------------------->
<--------------------------------------->
Tabbed by: 18zzz18
PM Me Corrections

Well the only good tabs i saw for this was on Guitar Pro which i dont have cause i dont
pay for it (:  so this tab is for everyone like me.

My first tab so go easy ;)

I'm pretty sure this is 99.9% correct.
Maybe better. (:

UPDATE::: I fixed the intro and everything thats the same as the intro.  I put it down
 Instead of eights i put sixes... whoops... hehe.


Tuning:  Drop A chord diagramD MajorD  (D,A,D,G,B,E)


Intro:

e|---------------------------------------------------------------------------|
A chord diagramBB|-8-8-8-8-8-8-7-8-8-8-8-8-8/10\8--------------------------------------------|
A chord diagramG+G|-x-x-x-x-x-x-x-x-x-x-x-x-x-x-x-------------------------------X3------------|
A chord diagramD MajorD|-8-8-8-8-8-8-7-8-8-8-8-8-8/10\8--------------------------------------------|
A chord diagramA augmentedA|---------------------------------------------------------------------------|
A chord diagramE MajorE|---------------------------------------------------------------------------|

On the second time of that Guitar 2 comes in with
e|---------------------------------------------------------------------------|
A chord diagramBB|---------------------------------------------------------------------------|
A chord diagramG+G|---------------------------------------------------------------------------|
A chord diagramD MajorD|-5-5-5-5-5-5-0-5-5-5-5-5-5-0-----------------------------------------------|
A chord diagramA augmentedA|-5-5-5-5-5-5-0-5-5-5-5-5-5-0---------------------------x2------------------|
A chord diagramE MajorE|-5-5-5-5-5-5-0-5-5-5-5-5-5-0-----------------------------------------------|


Verse same as intro but quiet and no guitar 2.
Then play this
  "So real these voices in my head...."
e|---------------------------------------------------------------------------|
A chord diagramBB|---------------------------------------------------------------------------|
A chord diagramG+G|---------------------------------------------------------------------------|
A chord diagramD MajorD|-1-1-1-1-8-8-8-8--5-5-5-5-5-5-0-5-5-5-5-5-5-0------------------------------|
A chord diagramA augmentedA|-1-1-1-1-8-8-8-8--5-5-5-5-5-5-0-5-5-5-5-5-5-0------------------------------|
A chord diagramE MajorE|-1-1-1-1-8-8-8-8--5-5-5-5-5-5-0-5-5-5-5-5-5-0------------------------------|

Guitar 2:
don't play till after the 1s and the 8s
e|---------------------------------------------------------------------------|
A chord diagramBB|-8-8-8-8-8-8-7-8-8-8-8-8-8/10\8--------------------------------------------|
A chord diagramG+G|-x-x-x-x-x-x-x-x-x-x-x-x-x-x-x---------------------------------------------|
A chord diagramD MajorD|-8-8-8-8-8-8-7-8-8-8-8-8-8/10\8--------------------------------------------|
A chord diagramA augmentedA|---------------------------------------------------------------------------|
A chord diagramE MajorE|---------------------------------------------------------------------------|


 "When it comes back you wont be..."
e|---------------------------------------------------------------------------|
A chord diagramBB|---------------------------------------------------------------------------|
A chord diagramG+G|---------------------------------------------------------------------------|
A chord diagramD MajorD|-1-1-1-1-8-8-8-8-----------------------------------------------------------|
A chord diagramA augmentedA|-1-1-1-1-8-8-8-8-----------------------------------------------------------|
A chord diagramE MajorE|-1-1-1-1-8-8-8-8-----------------------------------------------------------|

e|---------------------------------------------------------------------------|
A chord diagramBB|---------------------------------------------------------------------------|
A chord diagramG+G|---------------5-5-5-------------------------------------------------------|
A chord diagramD MajorD|-5-5-0-0-1-1-1-3-3-3-3-----------------------------------------------------|
A chord diagramA augmentedA|-5-5-0-0-1-1-1-3-3-3-3-------------x4--------------------------------------|
A chord diagramE MajorE|-5-5-0-0-1-1-1-------3-----------------------------------------------------|
 (On the fourth time dont play the last four power chords)

Play Intro again
Play verse again
Play chorus again

Intro
Then
e|---------------------------------------------------------------------------|
A chord diagramBB|---------------------------------------------------------------------------|
A chord diagramG+G|---------------------------------------------------------------------------|
A chord diagramD MajorD|---------------------------------------------------------------------------|
A chord diagramA augmentedA|-1-1-1-1-8-8-8-8-----------------------------------------------------------|
A chord diagramE MajorE|-1-1-1-1-8-8-8-8-----------------------------------------------------------|


Bridge:
"It's all because of you..."
e|---------------------------------------------------------------------------|
A chord diagramBB|--8-8-8-8-8-8-/8-8-8-8-8-8-/8-8-8-8-8-8-8-/8-8-8-8-8-8-/8-8-8-8-8-8--------|
A chord diagramG+G|---------------------------------------------------------------------------|
A chord diagramD MajorD|---------------------------------------------------------------------------|
A chord diagramA augmentedA|---------------------------------------------------------------------------|
A chord diagramE MajorE|---------------------------------------------------------------------------|
and so on...

  Then
  "I wish you never told me, i wish i never knew!"
e|---------------------------------------------------------------------------|
A chord diagramBB|---------------------------------------------------------------------------|
A chord diagramG+G|---------------------------------------------------------------------------|
A chord diagramD MajorD|-------------------------1-1-1---------------------------------------------|
A chord diagramA augmentedA|-------------------1-1-1-1-1-1---------------------------------------------|
A chord diagramE MajorE|-1-1-1-1-1-1-1-1-1-1-1-1-1-1-1---------------------------------------------|
Gradually get louder.


Chorus again
Then intro

| /  slide up
| \  slide down
| h  hammer-on
| p  pull-off
| ~  vibrato
| +  harmonic
| x  Mute note


_______________________________________________________________________________

6.Let You Down


Band- Three Days Grace
Song- Let You Down

Tuning- Drop D, 1 step down


Intro/Verse
|-------------------------------------------------|
|-------------------------------------------------|
|----------2---------2------2--------*2-----------|
|-------0--------0------0---------*0--------------|
|--5---------3------1----------*3-----------------|
|-------------------------------------------------|
  *(play this only the 3rd time through the riff)


Chorus
|--0------------------------------------------|
|--3------------------------------------------|
|--2------------------------------------------|
|--0--0---3-0-3----8-7-10---------------------| (x3)
|--0--0---3-0-3----8-7-10---------------------|
|--0--0---3-0-3----8-7-10---------------------|

|--------------------------------------------|
|--------------------------------------------|
|--10------12--------------------------------|
|--8-------10--------------------------------|
|--8-------10--------------------------------|
|--8-------10--------------------------------|


Verse


Chorus
|--0------------------------------------------|
|--3------------------------------------------|
|--2------------------------------------------|
|--0--0---3-0-3----8-7-10---------------------| (x3)
|--0--0---3-0-3----8-7-10---------------------|
|--0--0---3-0-3----8-7-10---------------------|

|--------------------------------------------|
|--------------------------------------------|
|--10------12--------------------------------|
|--8-------10--------------------------------|
|--8-------10--------------------------------|
|--8-------10--------------------------------|

|--0------------------------------------------|
|--3------------------------------------------|
|--2------------------------------------------|
|--0--0---3-0-3--x-x--x--x---8-7-10-----------| (x3)
|--0--0---3-0-3--x-x--x--x---8-7-10-----------|
|--0--0---3-0-3--x-x--x--x---8-7-10-----------|

|--------------------------------------------|
|--------------------------------------------|
|--10------12--------------------------------|
|--8-------10--------------------------------|
|--8-------10--------------------------------|
|--8-------10--------------------------------|


Bridge
|-------------14-------------------17------------------------21------|
|---12------------------14--------------------15---------------------|
|--------------------------------------------------------------------|
|--------------------------------------------------------------------|
|--------------------------------------------------------------------|
|--------------------------------------------------------------------|
					(x2)
|--------------------------------------------|
|--------------------------------------------|
|--------------------------------------------|
|--0--9--7--5--4--0--------------------------|
|--0--9--7--5--4--0--------------------------|
|--0--9--7--5--4--0--------------------------|

|------------------------------------------------|
|------------------------------------------------|
|--11----6----7----------------------------------|
|--9-----4-----5--------0--9--7--5--4--0---------| (x2)
|--9-----4-----5--------0--9--7--5--4--0---------|
|--9-----4-----5--------0--9--7--5--4--0---------|

|----------------------------------------------|
|----------------------------------------------|
|--11----6-----7-------------------------------|
|--9-----4-----5-------------------------------|
|--9-----4-----5-------------------------------|
|--9-----4-----5-------------------------------|

|--------------------------------------------|
|--------------------------------------------|
|--------------------------------------------|
|--0---------------0---------8--7--10--------|
|--0---------------0---------8--7--10--------|
|--0---------------0---------8--7--10--------|


Chorus

ENJOY!!!!!

____________________________________________________________________

7.Now Or Never


Now or Never - Three Days Grace

Tuning:  Drop A chord diagramD MajorD     DADGBE

Here is another 3DG tab, with more props to "Hal and Leonard."  The verse would have
tough to figure out with the help of the tab book!!  This is it, strum for strum as usual!
rate!!  This one is dead on!!

Guitar 1 - Barry Stock
Guitar 2 - Adam Gontier


INTRO
Guitar 1 - Clean
Last chord strummed very softly.
Let each ring out.

Guitar 1
e|---------------------------------|
A chord diagramBB|---------------------------------|
A chord diagramG+G|-6----6--------------------------|
A chord diagramD MajorD|-4----4----4----7----------------|
A chord diagramA augmentedA|-2----0----2----5----------------|
A chord diagramE MajorE|------0----2----5----------------|


INTRO CONTINUED   3X

Both Guitars - Dist.
e|------------------------------|
A chord diagramBB|------3-----------------------|
A chord diagramG+G|-4-4--2-----4-4----7----------|
A chord diagramD MajorD|-4-4--0---0-2-2--0-5----------|
A chord diagramA augmentedA|-2-2--0---0-2-2--0-5----------|
A chord diagramE MajorE|------0---0-2-2--0-5----------|


INTRO Continued    1X
Both Guitars - Dist.
e|-----------0--------------------|
A chord diagramBB|-----------0--------------------|
A chord diagramG+G|--6--6--6--2--------------------|
A chord diagramD MajorD|--4--4--4--2--------------------|
A chord diagramA augmentedA|--4--4--4--0--------------------|
A chord diagramE MajorE|--4--4--4-----------------------|


VERSE
Guitar 1 - Dist. (both guitars could play the same thing here)
e|-------------------------------------------|
A chord diagramBB|----------------0---------3---------0------|
A chord diagramG+G|-7----2----4----2----7----2----4----2------|
A chord diagramD MajorD|-7----0----4----2----7----0----4----2------|
A chord diagramA augmentedA|-5----0----2----0----5----0----2----0------|
A chord diagramE MajorE|-5----0----2---------5----0----2-----------|

CHORUS
Part 1  3X
Both Guitars - Dist.
e|------------------------------|
A chord diagramBB|------3-----------------------|
A chord diagramG+G|-4-4--2-----4-4----7----------|
A chord diagramD MajorD|-4-4--0---0-2-2--0-5----------|
A chord diagramA augmentedA|-2-2--0---0-2-2--0-5----------|
A chord diagramE MajorE|------0---0-2-2--0-5----------|


CHORUS
Part 2   1X
Both Guitars - Dist
e|-------------------------------------|
A chord diagramBB|-------------------------------------|
A chord diagramG+G|-6---6--6--6--9--9----9----9----9----|
A chord diagramD MajorD|-4---4--4--4--7--7----7----7----7----|
A chord diagramA augmentedA|-4---4--4--4--7--7----7----7----7----|
A chord diagramE MajorE|-4---4--4--4--7--7----7----7----7----|


CHORUS
Part 1    3X
Both Guitars - Dist.
e|------------------------------|
A chord diagramBB|------3-----------------------|
A chord diagramG+G|-4-4--2-----4-4----7----------|
A chord diagramD MajorD|-4-4--0---0-2-2--0-5----------|
A chord diagramA augmentedA|-2-2--0---0-2-2--0-5----------|
A chord diagramE MajorE|------0---0-2-2--0-5----------|


Chorus
Part 2  1X
Both Guitars - Dist.  1X
e|------------0-------------------|
A chord diagramBB|------------0-------------------|
A chord diagramG+G|-6-6--6--6--2-------------------|
A chord diagramD MajorD|-4-4--4--4--2-------------------|
A chord diagramA augmentedA|-4-4--4--4--0-------------------|
A chord diagramE MajorE|-4-4--4--4----------------------|


VERSE
Guitar 1
e|-------------------------------------------|
A chord diagramBB|----------------0---------3---------0------|
A chord diagramG+G|-7----2----4----2----7----2----4----2------|
A chord diagramD MajorD|-7----0----4----2----7----0----4----2------|
A chord diagramA augmentedA|-5----0----2----0----5----0----2----0------|
A chord diagramE MajorE|-5----0----2---------5----0----2-----------|


CHORUS
Part 1  3X
Both Guitars - Dist.
e|------------------------------|
A chord diagramBB|------3-----------------------|
A chord diagramG+G|-4-4--2-----4-4----7----------|
A chord diagramD MajorD|-4-4--0---0-2-2--0-5----------|
A chord diagramA augmentedA|-2-2--0---0-2-2--0-5----------|
A chord diagramE MajorE|------0---0-2-2--0-5----------|


CHORUS
Part 2   1X
Both Guitars - Dist.
e|-------------------------------------|
A chord diagramBB|-------------------------------------|
A chord diagramG+G|-6---6--6--6--9--9----9----9----9----|
A chord diagramD MajorD|-4---4--4--4--7--7----7----7----7----|
A chord diagramA augmentedA|-4---4--4--4--7--7----7----7----7----|
A chord diagramE MajorE|-4---4--4--4--7--7----7----7----7----|


CHORUS   3X
Part 1
Both Guitars - Dist.
e|------------------------------|
A chord diagramBB|------3-----------------------|
A chord diagramG+G|-4-4--2-----4-4----7----------|
A chord diagramD MajorD|-4-4--0---0-2-2--0-5----------|
A chord diagramA augmentedA|-2-2--0---0-2-2--0-5----------|
A chord diagramE MajorE|------0---0-2-2--0-5----------|

Both Guitars - Dist.   1X

NOTE:  On last chord, gradually dive down with whammy bar and  eventually dive back up!!!!
e|----------------------|
A chord diagramBB|------------0---------|
A chord diagramG+G|------------2---------|
A chord diagramD MajorD|-4-4--4--4--2---------|
A chord diagramA augmentedA|-4-4--4--4--0---------|
A chord diagramE MajorE|-4-4--4--4------------|


INTRO  1X
Guitar 1 - Clean


CHORUS
Part 1 - 3X
Both Guitars - Dist.
e|------------------------------|
A chord diagramBB|------3-----------------------|
A chord diagramG+G|-4-4--2-----4-4----7----------|
A chord diagramD MajorD|-4-4--0---0-2-2--0-5----------|
A chord diagramA augmentedA|-2-2--0---0-2-2--0-5----------|
A chord diagramE MajorE|------0---0-2-2--0-5----------|


CHORUS
Part 2   1X
Both Guitars - Dist.
e|-------------------------------------|
A chord diagramBB|-------------------------------------|
A chord diagramG+G|-6---6--6--6--9--9----9----9----9----|
A chord diagramD MajorD|-4---4--4--4--7--7----7----7----7----|
A chord diagramA augmentedA|-4---4--4--4--7--7----7----7----7----|
A chord diagramE MajorE|-4---4--4--4--7--7----7----7----7----|


Chorus  3X
Both Guitars - Dist.
e|------------------------------|
A chord diagramBB|------3-----------------------|
A chord diagramG+G|-4-4--2-----4-4----7----------|
A chord diagramD MajorD|-4-4--0---0-2-2--0-5----------|
A chord diagramA augmentedA|-2-2--0---0-2-2--0-5----------|
A chord diagramE MajorE|------0---0-2-2--0-5----------|


CHORUS
Part 2   1X
Both Guitars - Dist.
e|-------------------------------------|
A chord diagramBB|-------------------------------------|
A chord diagramG+G|-6---6--6--6--9--9----9----9----9----|
A chord diagramD MajorD|-4---4--4--4--7--7----7----7----7----|
A chord diagramA augmentedA|-4---4--4--4--7--7----7----7----7----|
A chord diagramE MajorE|-4---4--4--4--7--7----7----7----7----|


CHORUS / OUTRO 3X
Both Guitars - Dist.
e|------------------------------|
A chord diagramBB|------3-----------------------|
A chord diagramG+G|-4-4--2-----4-4----7----------|
A chord diagramD MajorD|-4-4--0---0-2-2--0-5----------|
A chord diagramA augmentedA|-2-2--0---0-2-2--0-5----------|
A chord diagramE MajorE|------0---0-2-2--0-5----------|


CHORUS / OUTRO
Part 2   1X
Both Guitars - Dist.         v--slide down
e|-------------------------------------|
A chord diagramBB|-------------------------------------|
A chord diagramG+G|-6---6--6--6--9--9----9----9<--------|
A chord diagramD MajorD|-4---4--4--4--7--7----7----7<--------|
A chord diagramA augmentedA|-4---4--4--4--7--7----7----7<--------|
A chord diagramE MajorE|-4---4--4--4--7--7----7----7<--------|


_____________________________________________________________________

8.Born Like This


Band- Three Days Grace
Song- Born Like This


Tuning:Drop A chord diagramD MajorD


INTRO(palm muted)
e|---------------------------------------------------------------------------|
A chord diagramBB|---------------------------------------------------------------------------|
A chord diagramG+G|---------------------------------------------------------------------------|
A chord diagramD MajorD|---------------------------------------------------------------------------|
A chord diagramA augmentedA|---------------------------------------------------------------------------|
A chord diagramD MajorD|0-00-2-2-3-6666-5---------------------x4-----------------------------------|


 Guitar 1
e|---------------------------------------------------------------------------|
A chord diagramBB|---------------------------------------------------------------------------|
A chord diagramG+G|---------------------------------------------------------------------------|
A chord diagramD MajorD|---------------------------------------------------------------------------|
A chord diagramA augmentedA|0-00-2-2-3-6666-5----------------------------------------------------------|
A chord diagramD MajorD|0-00-2-2-3-6666-5---------------------x4-----------------------------------|


  Guitar 2
e|---------------------------------------------------------------------------|
A chord diagramBB|---------------------------------------------------------------------------|
A chord diagramG+G|---------------------------------------------------------------------------|
A chord diagramD MajorD|7-77-9-9-10-13-13-13-13-12-------------------------------------------------|
A chord diagramA augmentedA|5-55-7-7-8--11-11-11-11-10-------------------------------------------------|
A chord diagramD MajorD|--------------------------------------x4-----------------------------------|


Verse-palm muted
e|---------------------------------------------------------------------------|
A chord diagramBB|---------------------------------------------------------------------------|
A chord diagramG+G|---------------------------------------------------------------------------|
A chord diagramD MajorD|---------------------------------------------------------------------------|
A chord diagramA augmentedA|---------------------------------------------------------------------------|
A chord diagramD MajorD|0000----------0000----------0000----------0000-----------------------------|


Pre-Chorus
e|---------------------------------------------------------------------------|
A chord diagramBB|---------------------------------------------------------------------------|
A chord diagramG+G|---------------------------------------------------------------------------|
A chord diagramD MajorD|5-------2-------5-------------------------3-3---3-3------------------------|
A chord diagramA augmentedA|3-------0-------3-------1-1-1-1-1-1-1-1-1-1-1-1-1-1-1-1--------------------|
A chord diagramD MajorD|------------------------1-1-1-1-1-1-1-1-1-----1-----1-1--------------------|


Chorus-also use Guitar 2 part above
e|---------------------------------------------------------------------------|
A chord diagramBB|---------------------------------------------------------------------------|
A chord diagramG+G|---------------------------------------------------------------------------|
A chord diagramD MajorD|---------------------------------------------------------------------------|
A chord diagramA augmentedA|0-00-2-2-3-6666-5----------------------------------------------------------|
A chord diagramD MajorD|0-00-2-2-3-6666-5---------------x8-----------------------------------------|


repeat verse, pre chorus, and chorus


Bridge after Second Chorus
e|---------------------------------------------------------------------------|
A chord diagramBB|---------------------------------------------------------------------------|
A chord diagramG+G|---------------------------------------------------------------------------|
A chord diagramD MajorD|5----------2----------5----------2----------5----------2-------------------|
A chord diagramA augmentedA|3----------0----------3----------0----------3----------0-------------------|
A chord diagramD MajorD|---------------------------------------------------------------------------|

e|---------------------------------------------------------------------------|
A chord diagramBB|---------------------------------------------------------------------------|
A chord diagramG+G|---------------------------------------------------------------------------|
A chord diagramD MajorD|------------------3-3---3-3------------------------------------------------|
A chord diagramA augmentedA|1-1-1-1-1-1-1-1-1-1-1-1-1-1-1-1--------------------------------------------|
A chord diagramD MajorD|1-1-1-1-1-1-1-1-1-----1-----1-1--------------------------------------------|

then repeat intro,and chorus


| /  slide up
| \  slide down
| h  hammer-on
| p  pull-off
| ~  vibrato
| +  harmonic
| x  Mute note


_____________________________________________________________________________

9.Drown


Band- Three Days Grace
Song- Drown

Gtr I  (A chord diagramBB A chord diagramF#F# A chord diagramBB A chord diagramE MajorE A chord diagramG#G# A chord diagramC#C#) - 'Barry Stock'
Gtr II (A chord diagramBB A chord diagramF#F# A chord diagramBB A chord diagramE MajorE A chord diagramG#G# A chord diagramC#C#) - 'Adam Gontier'

  Q=145


Take note of the tuning, very strange, but you can
play it in Drop A chord diagramD MajorD too, or better yet Drop A chord diagramDbDb


  Intro - Gtrs I, II
|-------------------------------------------------------|
|-------------------------------------------------------|
|-------------------------------------------------------|
|---0--0-3--0-3--0-5--0-2--2--8----8---7--7-------------|
|---0--0-3--0-3--0-5--0-2--2--8----8---7--7---7----7h8--|
|---0--0-3--0-3--0-5--0-2--2--8----8---7--7-8----8------|


|------------------------------------------------------|
|------------------------------------------------------|
|------------------------------------------------------|
|-0--0-3--0-3---0-5--0-2--2---8----8---7-7--7-8-8--8---|
|-0--0-3--0-3---0-5--0-2--2---8----8---7-7--7-8-8--8---|
|-0--0-3--0-3---0-5--0-2--2---8----8---7-7--7-8-8--8---|


  Verse - Gtrs I, II
|------------------------------------------------------------------|
|------------------------------------------------------------------|
|------------------------------------------------------------------|
|-0----------------------------------------------------------------|
|-0----------------------------------------------------------------|
|-0----------------------------------------------------------------|


|------------------------------------------------------------------|
|------------------------------------------------------------------|
|-------------------------------------------------------------5----|
|-0-----------------------------------------------------------5----|
|-0-----------------------------------------------------------3----|
|-0----------------------------------------------------------------|


    Chorus - Gtr I
| |-------------------------------------------------| |
|o|-------------------------------------------------|o|
| |-------------3----------------------2------5--5--| |
| |-0-----------3------------3---------2------5--5--| |
|o|-0-----------1------------3---------0------3--3--|o|
| |-0------------------------3----------------------| |
| |                                                 | |
| |          Gtr II                                 | | Play three times
| |-------------------------------------------------| |
|o|-13-----------------------15---------------------|o|
| |-------------15----------------------------------| |
| |-------------------------------------------------| |
|o|-------------------------------------------------|o|
| |-------------------------------------------------| |


     Gtr I
| |--------------------------------------------| |
|o|--------------------------------------------|o|
| |-------------3----------------------2-------| |
| |-0-----------3------------3---------2-------| |
|o|-0-----------1------------3---------0-------|o|
| |-0------------------------3-----------------| |
| |                                            | |
| |  Gtr II                                    | |
| |--------------------------------------------| |
|o|-13-----------------------15----------------|o|
| |-------------15-----------------------------| |
| |--------------------------------------------| |
|o|--------------------------------------------|o|
| |--------------------------------------------| |


  Gtrs I, II
|-------------------------------------------------------|
|-------------------------------------------------------|
|-------------------------------------------------------|
|-0--0-3--0-3---0-5--0-2--2---8----8---7---7------------|
|-0--0-3--0-3---0-5--0-2--2---8----8---7---7---7----7h8-|
|-0--0-3--0-3---0-5--0-2--2---8----8---7---7-8----8-----|


|------------------------------------------------------|
|------------------------------------------------------|
|------------------------------------------------------|
|-0--0-3--0-3---0-5--0-2--2---8----8---7---7--7-8-8--8-|
|-0--0-3--0-3---0-5--0-2--2---8----8---7---7--7-8-8--8-|
|-0--0-3--0-3---0-5--0-2--2---8----8---7---7--7-8-8--8-|




play verse, then play chorus three times


then play this bridge:
|---------------------------------------------------------|
|---------------------------------------------------------|
|---------------------------------------------------------|
|-0--0-3--0-3---0-5--0-2--2---8----8---7---7-7-7-7-7-7-7--|
|-0--0-3--0-3---0-5--0-2--2---8----8---7---7-7-7-7-7-7-7--|
|-0--0-3--0-3---0-5--0-2--2---8----8---7---7-7-7-7-7-7-7--|

------------------------------------------------|
------------------------------------------------|
------------------------------------------------|
10-10-10-10-10-10-10-10-10-10-10-10-10-10-10-10-|
10-10-10-10-10-10-10-10-10-10-10-10-10-10-10-10-|
10-10-10-10-10-10-10-10-10-10-10-10-10-10-10-10-|


Then play the chorus six times and finish by playing this:


    Gtr I
|------------------------------------------------------------------|
|------------------------------------------------------------------|
|-------------3----------------------2-----------------------------|
|-0-----------3------------3---------2-----------------------------|
|-0-----------1------------3---------0------7----7h8------7----7h8-|
|-0------------------------3------------7-8----8------7-8----8-----|
|                                                                  |
|   Gtr II                                                         |
|------------------------------------------------------------------|
|-13-----------------------15--------------------------------------|
|-------------15---------------------------------------------------|
|------------------------------------------------------------------|
|------------------------------------------------------------------|
|------------------------------------------------------------------|
When guitar I stops guitar II continues to play this untill the song ends.

________________________________________________________________________________

10.Wake Up  (2 seperate versions put up here)


Ver.1-

THREE DAYS GRACE - WAKE UP (Live) from their self-titled Ltd Edition CD/DVD
Drop - A chord diagramD MajorD Tuning DADGBE

This is them LIVE IN BRAZIL, strum for strum.

Here is the video that I tabbed it from....

http://www.youtube.com/watch v=JTd2ZR2g5xo

Guitar 1 - Barry Stock
Guitar 2 - Adam Gontier


INTRO - 3X
Guitar 2 - Slight Distortion
A chord diagramE MajorE|-------------------------------------------------------------------|
A chord diagramBB|-------------------------------------------------------------------|
A chord diagramG+G|------------0-------------0---------------0------------------------|
A chord diagramD MajorD|--------4----4---4------4---4----------7-----7---7----7---5---4----|
A chord diagramA augmentedA|------2---2----2------0--------------5---5-----5-------------------|
A chord diagramD MajorD|-0-2---------------0-----------0-5-----------------0---0---0-------|


VERSE  2X
Guitar 1 - Reverb on
A chord diagramE MajorE|-------------------------------------------------------------------|
A chord diagramBB|-------------------------------------------------------------------|
A chord diagramG+G|------------0-------------0---------------0------------------------|
A chord diagramD MajorD|--------4----4---4------4---4----------7-----7---7----7---5---4~---|
A chord diagramA augmentedA|------2---2----2------0--------------5---5-----5-------------------|
A chord diagramD MajorD|-0--2---------------0-----------0--5-----------------0---0---0-----|

Guitar 2 - Some distortion (more than INTRO, but less than CHORUSES)
|--------------------------------------------------------------------|
|--------------------------------------------------------------------|
|--------------------------------------------------------------------|
|-----2---------------0--------------5-----------------0-------------|
|-----2---------------0--------------5-----------------0-------------|
|-----2---------------0--------------5-----------------0-------------|


PRE-CHORUS  -  Part 1
Guitar 1 - High Distortion
A chord diagramE MajorE|---------------------------------------------------|
A chord diagramBB|---------------------------------------------------|
A chord diagramG+G|---------------------------------------------------|
A chord diagramD MajorD|-7-------9---------10--------12--------------------|
A chord diagramA augmentedA|-7-6X----9-6X------10-6X-----12-6X-----------------|
A chord diagramD MajorD|-7-------9---------10--------12--------------------|

Guitar 2 - High Distortion
A chord diagramE MajorE|---------------------------------------------------|
A chord diagramBB|---------------------------------------------------|
A chord diagramG+G|---------------------------------------------------|
A chord diagramD MajorD|-7-------9---------10--------0---------------------|
A chord diagramA augmentedA|-7-6X----9-6X------10-6X-----0-6X------------------|
A chord diagramD MajorD|-7-------9---------10--------0---------------------|


PRE-CHORUS  -  Part 2
Guitar 1 - High Distortion
A chord diagramE MajorE|-----------------------------------------------------------------|
A chord diagramBB|-----------------------------------------------------------------|
A chord diagramG+G|--------------------------------11-11-11-12-14---11-11-11-12-14--|
A chord diagramD MajorD|-7-------9---------10-----------9--9--9--10-12---9--9--9--10-12--|
A chord diagramA augmentedA|-7-6x----9-6x------10-6x--------9--9--9--10-12---9--9--9--10-12--|
A chord diagramD MajorD|-7-------9---------10--------------------------------------------|

Guitar 2 - High Distortion
A chord diagramE MajorE|-----------------------------------------------------------------|
A chord diagramBB|-----------------------------------------------------------------|
A chord diagramG+G|-----------------------------------------------------------------|
A chord diagramD MajorD|-7-------9---------10-----------0--0--0--0--0----0--0--0--0--0---|
A chord diagramA augmentedA|-7-6X----9-6X------10-6X--------0--0--0--0--0----0--0--0--0--0---|
A chord diagramD MajorD|-7-------9---------10-----------0--0--0--0--0----0--0--0--0--0---|


CHORUS - Part 1
Both Guitars - Distortion
A chord diagramE MajorE|--------------------------------------------------|
A chord diagramBB|--------------------------------------------------|
A chord diagramG+G|--------------------------------------------------|
A chord diagramD MajorD|-0-2-2-0-2-----2-0-0-0-0--5-5-5-5-5-----5-0-0-0-0-|
A chord diagramA augmentedA|-0-2-2-0-2-----2-0-0-0-0--5-5-5-5-5-----5-0-0-0-0-|
A chord diagramD MajorD|-0-2-2-0-2-----2-0-0-0-0--5-5-5-5-5-----5-0-0-0-0-|


CHORUS - Part 2
Guitar 1
A chord diagramE MajorE|---------------------------------------------------|
A chord diagramBB|---------------------------------------------------|
A chord diagramG+G|---------------------------------------------------|
A chord diagramD MajorD|-0-2-2-0-2-----9-9-9-9---10101010--1010--0-0--0-0--|
A chord diagramA augmentedA|-0-2-2-0-2-----9-9-9-9---10101010--1010--0-0--0-0--|
A chord diagramD MajorD|-0-2-2-0-2-----9-9-9-9---10101010--1010--0-0--0-0--|

Guitar 2
A chord diagramE MajorE|---------------------------------------------------|
A chord diagramBB|---------------------------------------------------|
A chord diagramG+G|---------------4-4-4-4---5-5-5-5--5-5--------------|
A chord diagramD MajorD|-0-2-2-0-2-----4-4-4-4---5-5-5-5--5-5----0-0--0-0--|
A chord diagramA augmentedA|-0-2-2-0-2-----2-2-2-2---3-3-3-3--3-3----0-0--0-0--|
A chord diagramD MajorD|-0-2-2-0-2-------------------------------0-0--0-0--|


VERSE        3X

PRE-CHORUS   2X

CHORUS       2X


BRIDGE - High Distortion all the way through the end of the song!!!!
Guitar 1
A chord diagramE MajorE|---------------------------------------------------|
A chord diagramBB|---------------------------------------------------|
A chord diagramG+G|---------------------------------------------------|
A chord diagramD MajorD|-7-------9---------10--------12--------------------|
A chord diagramA augmentedA|-7-6X----9-6X------10-6X-----12-6X-----------------|
A chord diagramD MajorD|-7-------9---------10--------12--------------------|

Guitar 2
A chord diagramE MajorE|---------------------------------------------------|
A chord diagramBB|---------------------------------------------------|
A chord diagramG+G|---------------------------------------------------|
A chord diagramD MajorD|-7-------9---------10--------0---------------------|
A chord diagramA augmentedA|-7-6X----9-6X------10-6X-----0--6X-----------------|
A chord diagramD MajorD|-7-------9---------10--------0---------------------|

Guitar 1
A chord diagramE MajorE|-----------------------------------------------|
A chord diagramBB|-----------------------------------------------|
A chord diagramG+G|----------------------------11-11-11-12-11-----|
A chord diagramD MajorD|-7-------9---------10-------9--9--9--10-9------|
A chord diagramA augmentedA|-7--6X---9--6X-----10--6X---9--9--9--10-9------|
A chord diagramD MajorD|-7-------9---------10--------------------------|

Guitar 2
A chord diagramE MajorE|-----------------------------------------------|
A chord diagramBB|-----------------------------------------------|
A chord diagramG+G|-----------------------------------------------|
A chord diagramD MajorD|-7-------9---------10-------0--0--0--0--0------|
A chord diagramA augmentedA|-7-6X----9-6X------10--6X---0--0--0--0--0------|
A chord diagramD MajorD|-7-------9---------10-------0--0--0--0--0------|

Guitar 1
A chord diagramE MajorE|-----------------------------------------------|
A chord diagramBB|-----------------------------------------------|
A chord diagramG+G|-----------------------------------------------|
A chord diagramD MajorD|-7-------9---------10--------12----------------|
A chord diagramA augmentedA|-7-6X----9-6X------10-6X-----12-6X-------------|
A chord diagramD MajorD|-7-------9---------10--------12----------------|

Guitar 2
A chord diagramE MajorE|---------------------------------------------------|
A chord diagramBB|---------------------------------------------------|
A chord diagramG+G|---------------------------------------------------|
A chord diagramD MajorD|-7-------9---------10--------0---------------------|
A chord diagramA augmentedA|-7-6X----9-6X------10-6X-----0--6X-----------------|
A chord diagramD MajorD|-7-------9---------10--------0---------------------|

Guitar 1
A chord diagramE MajorE|---------------------------------------------------|
A chord diagramBB|---------------------------------------------------|
A chord diagramG+G|---------------------------[-11-11-11-12-14-]------|
A chord diagramD MajorD|-7-------9---------10------[-9--9--9--10-12-]-4X---|
A chord diagramA augmentedA|-7--6X---9--6X-----10-6X---[-9--9--9--10-12-]------|
A chord diagramD MajorD|-7-------9---------10------------------------------|

Guitar 2
A chord diagramE MajorE|---------------------------------------------------|
A chord diagramBB|---------------------------------------------------|
A chord diagramG+G|---------------------------------------------------|
A chord diagramD MajorD|-7-------9---------10------[-0--0--0--0--0--]------|
A chord diagramA augmentedA|-7-6X----9-6X------10-6X---[-0--0--0--0--0--]-4X---|
A chord diagramD MajorD|-7-------9---------10------[-0--0--0--0--0--]------|


POST BRIDGE RIFF  Guitars Only 1X
Guitar 1
A chord diagramE MajorE|-------------------------------------------------------|
A chord diagramBB|-------------------------------------------------------|
A chord diagramG+G|----------------------------------------11-11-11-12-14-|
A chord diagramD MajorD|-0-2-2-0-2-----2-0-0-0-0--5-5-5-5-5-----9--9--9--10-12-|
A chord diagramA augmentedA|-0-2-2-0-2-----2-0-0-0-0--5-5-5-5-5-----9--9--9--10-12-|
A chord diagramD MajorD|-0-2-2-0-2-----2-0-0-0-0--5-5-5-5-5--------------------|

Guitar 2
A chord diagramE MajorE|-------------------------------------------------------|
A chord diagramBB|-------------------------------------------------------|
A chord diagramG+G|-------------------------------------------------------|
A chord diagramD MajorD|-0-2-2-0-2-----2-0-0-0-0--5-5-5-5-5-----5--0--0--0--0--|
A chord diagramA augmentedA|-0-2-2-0-2-----2-0-0-0-0--5-5-5-5-5-----5--0--0--0--0--|
A chord diagramD MajorD|-0-2-2-0-2-----2-0-0-0-0--5-5-5-5-5-----5--0--0--0--0--|


CHORUS - Part 1
Both Guitars - Distortion
A chord diagramE MajorE|--------------------------------------------------|
A chord diagramBB|--------------------------------------------------|
A chord diagramG+G|--------------------------------------------------|
A chord diagramD MajorD|-0-2-2-0-2-----2-0-0-0-0--5-5-5-5-5-----5-0-0-0-0-|
A chord diagramA augmentedA|-0-2-2-0-2-----2-0-0-0-0--5-5-5-5-5-----5-0-0-0-0-|
A chord diagramD MajorD|-0-2-2-0-2-----2-0-0-0-0--5-5-5-5-5-----5-0-0-0-0-|


CHORUS - Part 2
Guitar 1
A chord diagramE MajorE|---------------------------------------------------|
A chord diagramBB|---------------------------------------------------|
A chord diagramG+G|---------------------------------------------------|
A chord diagramD MajorD|-0-2-2-0-2-----9-9-9-9---10101010--1010--0-0--0-0--|
A chord diagramA augmentedA|-0-2-2-0-2-----9-9-9-9---10101010--1010--0-0--0-0--|
A chord diagramD MajorD|-0-2-2-0-2-----9-9-9-9---10101010--1010--0-0--0-0--|

Guitar 2
A chord diagramE MajorE|---------------------------------------------------|
A chord diagramBB|---------------------------------------------------|
A chord diagramG+G|---------------4-4-4-4---5-5-5-5--5-5--------------|
A chord diagramD MajorD|-0-2-2-0-2-----4-4-4-4---5-5-5-5--5-5----0-0--0-0--|
A chord diagramA augmentedA|-0-2-2-0-2-----2-2-2-2---3-3-3-3--3-3----0-0--0-0--|
A chord diagramD MajorD|-0-2-2-0-2-------------------------------0-0--0-0--|

Both Guitars
A chord diagramE MajorE|--------------------------------------------------|
A chord diagramBB|--------------------------------------------------|
A chord diagramG+G|--------------------------------------------------|
A chord diagramD MajorD|-0-2-2-0-2-----2-0-0-0-0--5-5-5-5-5-----5-0-0-0-0-|
A chord diagramA augmentedA|-0-2-2-0-2-----2-0-0-0-0--5-5-5-5-5-----5-0-0-0-0-|
A chord diagramD MajorD|-0-2-2-0-2-----2-0-0-0-0--5-5-5-5-5-----5-0-0-0-0-|

Guitar 1
A chord diagramE MajorE|-----------------------------------------------------------------|
A chord diagramBB|-----------------------------------------------------------------|
A chord diagramG+G|----------------------------------------11-11-12-14-<------------|
A chord diagramD MajorD|-0-2-2-0-2-----9-9-9-9---10101010--1010-11-11-12-12-<-slide down-|
A chord diagramA augmentedA|-0-2-2-0-2-----9-9-9-9---10101010--1010-9--9--10-12-<------------|
A chord diagramD MajorD|-0-2-2-0-2-----9-9-9-9---10101010--1010--------------------------|

Guitar 2
A chord diagramE MajorE|-----------------------------------------------------------------|
A chord diagramBB|-----------------------------------------------------------------|
A chord diagramG+G|---------------4-4-4-4---5-5-5-5---5-5---------------------------|
A chord diagramD MajorD|-0-2-2-0-2-----4-4-4-4---5-5-5-5---5-5--0--0--0--0---------------|
A chord diagramA augmentedA|-0-2-2-0-2-----2-2-2-2---3-3-3-3---3-3--0--0--0--0---------------|
A chord diagramD MajorD|-0-2-2-0-2------------------------------0--0--0--0---------------|

By the way, those are random harmonics at the end of the RECORDED VERSION (this is the
LIVE VERSION of them in Brazil on their DVD!!)


___________________________________________________________________________

Wake Up Ver.2-


Three Days Grace - Wake up
Transcribed by Richard Sibley.
Feel free to email me at richard at vaultworld dot com!
------------------------------------------------------

Here are the basics of the song.  As always, listen to
the song to understand and hear exactly what is going on.
The transcription may not be exact, but I think it's pretty close.
------------------------------------------------------

Drop A chord diagramD MajorD tuning with Capo 2


[Intro - Riff 1]

       |   |   |   |     |   |   |  |    |   |   |   |     |   |   |  |
A chord diagramE MajorE|---|-----------------|---------------|-----------------|----------------|
A chord diagramBB|---|-----------------|---------------|-----------------|----------------|
A chord diagramG+G|---|-----------------|---------------|-----------------|----------------|
A chord diagramD MajorD|---|-----4---5-4---4-|-----4-5--4----|-----7---5h7---7-|---7---5--4-----|
A chord diagramA augmentedA|---|---2---2---------|---0-----------|---5-------------|----------------|
A chord diagramD MajorD|-0-|-2-----------2---|-0-----------0-|-5-----5-----5---|-0---0-------0--|


[Verse 1] {Guitar continues playing Riff 1 twice}
I’m not sober all the time
You bring me down at least you try
Until we see this eye to eye
I don’t want you

[Guitar plays Riff 1]


[Verse 2] {Guitar continues playing Riff 1 twice}
I must be running out of luck
’Cause you’re just not drunk enough to f**k
And now I’ve had it up to here
And I don’t, I don’t want you


[Pre-chorus]
A chord diagramE MajorE|---------|---------|---------|---------------|
A chord diagramBB|-5-5-5-5-|-7-7-7-7-|-8-8-8-8-|--10-10-10-10--|
A chord diagramG+G|-2-2-2-2-|-4-4-4-4-|-5-5-5-5-|---7--7--7--7--|
A chord diagramD MajorD

Almost there ...

Sign in to get your own page with links to favourite songs and more. You are just one click away...

Login with Facebook Login with Google