Log in

One click and you are in

Login with Facebook Login with Google

Why sign up and log in

Guitar Tabs Explorer
Three Days Grace tabs for Are you ready

Guitar tabs

Tuning - Drop A chord diagramD MajorD

|------------------------|
|------------------------|
|4-4-4-4-6-6-7-----------|intro
|x-x-x-x-x-x-x-5-2-------|
|2-2-2-2-4-4-5-5-2-------|
|--------------5-2-------|

|------------------------|
|------------------------|
|4-----------------------|verse
|x-----------------------|
|2-----------------------|
|------------------------|

|------------------------|
|10--5--10--7777---------|
|9---4--9---6666---------|pre-chorus
|7---2--7---4444---------|
|7---2--7---4444---------|
|7---2--7---4444---------|
pm          ....

|------------------------|
|------------------------|
|------------------------|chorus
|0-0-4-0-0-4-4-4---5-5---|
|0-0---0-0---4-4-4-5-5-0-|
|0-0---0-0---4-4---5-5---|

|------------------------|
|------------------------|
|4-----------------------|verse
|x-----------------------|
|2-----------------------|
|------------------------|

|------------------------|
|------------------------|
|4-5-2-------------------|interlude
|x-x-x-44445555----------|
|2-3-0-44445555----------|
|------44445555----------|
pm     ........

|------------------------|
|------------------------|
|------------------------|chorus 2
|0-0---0-0-4-4---5-5-----|
|0-0---0-0-4-4-4-5-5-0---|
|0-0---0-0-4-4---5-5-----|

order:

intro x2

verse x4

prechorus x1

chorus x4

verse x4

Almost there ...

Sign in to get your own page with links to favourite songs and more. You are just one click away...

Login with Facebook Login with Google