Log in

One click and you are in

Login with Facebook Login with Google

Why sign up and log in

Guitar Tabs Explorer
Thornley tabs for Underneath the radar

Guitar tabs

THORNLEY - Underneath The Radar


open A chord diagramDmDm

verse (guitar 1) w/tremolo & phaser
|---------------------------------------------------------------------|
|-------------------0-0-0-0--0-0--------------------------------------|
|-0-0-0-0--5-5-7-7--0-0-0-0--0-0-0-0----------------------------------|
|-7-7-7-7--5-5-5-5--2-2-2-2--2-2-5-5----------------------------------|
|-5-5-5-5--5-5-5-5--3-3-3-3--0-0-4-4----------------------------------|
|----------5-5-5-5----------------------------------------------------|


verse (guitar 2) clean,let ring
A chord diagramD MajorD|--------------------------------------------------------------------|
A chord diagramA augmentedA|--0-0--0-0-------------------------0--------------------------------|
A chord diagramFF|---0----0----0----0----0----0----0---0------------------------------|
A chord diagramD MajorD|-0----0-----5-5--5-5--2-2--2-2--2-2-2-2-----------------------------|
A chord diagramA augmentedA|---------------------3----3----0------------------------------------|
A chord diagramD MajorD|-----------5----5---------------------------------------------------|


chorus
|--------------------------------------------------------------------------------------|
|----------------------------0:--(alternate picking)-----------------------------------|
|----------------------------x---------------------------------------------------------|
|-----0:---------------------x----5555555555555555-------------------------------------|
|-12\-0:----8-8:----10-8-7-3-3:---3333333344444444-------------------------------------|
|-12\-0:----8-8:----10-8-7-3-3:--------------------------------------------------------|

I'm     weathering the storm..


|-----------------------------------------------------------------------------------|
|(donwpicking)----------------------------------------------------------------------|
|(slight palm mute)---(alternate picking)-------------------------------------------|
|-----------------------------------------------------------------------------------|
|-7-8-7-8-7-8-7-8-------------------------------------------------------------------|
|-7-8-7-8-7-8-7-8-----8700-7500-5300-3200-------------------------------------------|

underneath the radar..


transcribed by Dean LaBonte


Used Tab Symbols
_____________________

 \  = Slide Down
 :  = Let Ring
 x  = Muted Note
____________________

Almost there ...

Sign in to get your own page with links to favourite songs and more. You are just one click away...

Login with Facebook Login with Google