Log in

One click and you are in

Login with Facebook Login with Google

Why sign up and log in

Guitar Tabs Explorer
Richard Thompson chords for Pharoah

Guitar chords

Pharaoh, Richard Thompson
transcribed by phillip@princeton.edu


Intro (A chord diagramD MajorD)
-|-------------------------------------------------------------------|
-|--------------------------2--0-------------------------------------|
-|--------------------------------2--2--2----------------------------|
-|------0----0---------4-------------------4--2--4-------------------|
-|-0--------------0--------------------------------------------------|
-|-------------------------------------------------------------------|

A chord diagramF# minorF#m                             A chord diagramE MajorE
Pharaoh ..
A chord diagramF# minorF#m                   A chord diagramC# minorC#m
The ..
A chord diagramF# minorF#m                         A chord diagramE MajorE
Magicians ..
A chord diagramD MajorD         A chord diagramC# minorC#m             A chord diagramE MajorE  A chord diagramF# minorF#m
We're ..


A chord diagramA augmentedA ..
He ..
Don't ..
We're ..


Bridge
A chord diagramBsus4Bsus4
Egypt ..
We're ..
A chord diagramF# minorF#m                         A chord diagramA augmentedA    A chord diagramBsus4Bsus4
Tell ..
A chord diagramD MajorD         A chord diagramC# minorC#m             A chord diagramE MajorE  A chord diagramF# minorF#m
We're ..


verse


verse


Bridge


verse


verse


Bridge


verse


Outro

-|---------------------------|---------------------------------|
-|-2--2--0-----0-----0--2--2-|---------------------------------|
-|-2--2--1--2--1--2--1--2--2-|-2--1--2--1--2--1--------1--1----|
-|----------4-----4----------|-4--2--4--2--4--2--4--4--2--2----|
-|---------------------------|-------------------5--5----------|
-|---------------------------|---------------------------------|

                                           A chord diagramC#C# A chord diagramB minorBm
-|---------------------------|----------------------------------|
-|-2--2--2--2--2--0-----0--2-|----------------------------------|
-|-2--2--2--2--2--1--2--1--2-|----------------------------------|
-|-4--4--4--4--4--2--0--2--4-|-0--------------------------------|
-|---------------------------|----4--2--0-----2-----------------|
-|---------------------------|-------------4--------------------|

Almost there ...

Sign in to get your own page with links to favourite songs and more. You are just one click away...

Login with Facebook Login with Google