Log in

One click and you are in

Login with Facebook Login with Google

Why sign up and log in

Guitar Tabs Explorer
Rob Thomas tabs for Someday

Guitar tabs

Standard
Piano Riff (Sounds accurate to me)
e-------6-----6---|
b-----6---6-----6-|
g---8-------8-----|
d-8---------------|
a-----------------|
e-----------------|
Verse/Chorus (Up to you what rhythm you strum it in.  Just tabbing the chords.)
e-------------------------------------|
b----------8-8-8-8--5-5-5-5-----------|
g-7-7-7-7--8-8-8-8--5-5-5-5--7-7-7-7--|
d-8-8-8-8--8-8-8-8--5-5-5-5--8-8-8-8--|
a-8-8-8-8--6-6-6-6--3-3-3-3--8-8-8-8--|
e-6-6-6-6--------------------6-6-6-6--|


Bridge
e------------------------------------------------|
b------------------------------------------------|
g-4-4-4--4-4--4-4-4--4-4--7-7-7--7-7--7-7-7--7-7-|
d-5-5-5--5-5--5-5-5--5-5--8-8-8--8-8--8-8-8--8-8-|
a-5-5-5--5-5--5-5-5--5-5--8-8-8--8-8--8-8-8--8-8-|
e-3-3-3--3-3--3-3-3--3-3--6-6-6--6-6--6-6-6--6-6-|

e------------------------------------------------|
b------------------------------------------------|
g-4-4-4--4-4--4-4-4--4-4--2-2-2--2-2--2-2-2--2-2-|
d-5-5-5--5-5--5-5-5--5-5--3-3-3--3-3--3-3-3--3-3-|
a-5-5-5--5-5--5-5-5--5-5--3-3-3--3-3--3-3-3--3-3-|
e-3-3-3--3-3--3-3-3--3-3--1-1-1--1-1--1-1-1--1-1-|


Outro
e-11p10----10----10-|
b-------11----11----| repeat
g-------------------| several
d-------------------| times
a-------------------|

Other versions of Someday

SomedayChords

Almost there ...

Sign in to get your own page with links to favourite songs and more. You are just one click away...

Login with Facebook Login with Google