Log in

One click and you are in

Login with Facebook Login with Google

Why sign up and log in

Guitar Tabs Explorer
Thom Yorke bass tabs for Impossible knots

Bass tabs

G|-8--8-8-6-----------------------------------------------------------------------6-|
D|----------8-8-8-8-8-4-6-6-6-4-8-8-8-8-8-4-6-6-6-4---------------------------------|
A|--------------------------------------------------6-6-6-6-6-4-6-6-6-4-6-6-6-6-6---|
E|----------------------------------------------------------------------------------|

G|-8--8-8-6-------------------------------------------------------------------------|
D|----------8-8-8-8-8-4-6-6-6-4-8-8-8-8-8-4-6-6-6-4---------------------------------|
A|--------------------------------------------------6-6-6-6-6-4-6-6-6-4-6-6-6-4-----|
E|----------------------------------------------------------------------------------|
 x5

I can't quite figure out the bridge part just yet, but if you can,
just message me and I'll add it.

One last time after the bridge

Outro:
G|-8--8-8-6-----------------------------------------------------------------------6-|
D|----------8-8-8-8-8-4-6-6-6-4-8-8-8-8-8-4-6-6-6-4---------------------------------|
A|--------------------------------------------------6-6-6-6-6-4-6-6-6-4-6-6-6-6-6---|
E|----------------------------------------------------------------------------------|

G|-8--8-8-6-------------------------------------------------------------------------|
D|----------8-8-8-8-8-4-6-6-6-4-8-8-8-8-8-4-6-6-6-4---------------------------------|
A|--------------------------------------------------6-6-6-6-6-4-6-6-6-4-6-6-6-4-----|
E|----------------------------------------------------------------------------------|

Almost there ...

Sign in to get your own page with links to favourite songs and more. You are just one click away...

Login with Facebook Login with Google