Log in

One click and you are in

Login with Facebook Login with Google

Why sign up and log in

Guitar Tabs Explorer
Third Eye Blind tabs for Persephone

Intro

Persephone
by: Third Eye Blind
tabbed by: tntrekabulator@hotmail.com
Standard Tuning

This is only the intro

( )-Natural Harmonic
 /-Slide up
 \-Slide Down

|--------------------------------------------------------------|
|--------------------------------------------------------------|
|--7--------------------------------(7)-------(7)--------------|
|--7---5----5/7------------------------(7)------(7)------------|
|--9---5----5/7-----0--------(7)-------------------------------|
|-------7----7/9-----2----(7)----------------------------------|
pluck on the neck
|------------------------------------------------------------------------------------|
|-----------------------------------5---------------(7)---------(7)------------------|
|------------7--6----------5---6-----------------------------------------------------|
|--7--7/9--------9-7\5---5------------------(5)-----(5)--------(5)-------------------|
|--5------------------------7----------0---(5)-----------(5)---------(5)-------------|

Almost there ...

Sign in to get your own page with links to favourite songs and more. You are just one click away...

Login with Facebook Login with Google