Log in

One click and you are in

Login with Facebook Login with Google

Why sign up and log in

Guitar Tabs Explorer
Third Eye Blind bass tabs for Hows it gonna be

Bass tabs

Song Title: How's it Gonna' Be
from the album Third Eye Blind

Wait one measure while guitar plays.
Verses-                        (singing begins)
G|---------------|-----------------|---------------|-------------------|
D|---------------|-----------------|---------------|-------------------|
A|---------------|-----------------|---------------|-------------------|
E|1-1--1--8-6-6-6|8/1-1--1--8-6-6-6|1-1--1--8-6-6-6|1-1--1--8-6-6=5=6=8|

G|---------------------|-------------------------|---------------------|
D|------3--------------|------3---3--------------|------3=5=3----------|
A|----3---3-5-1-1=0=1=3|----3---3---3-1-1-1=0=1=3|----3-------3-5-1-1-1|
E|1-1------------------|1-1----------------------|1-1------------------|
Chorus-
G|--------------|----------------|------------|---------------------|
D|-------3------|----------------|------3-5---|----3-5-3------------|
A|---------3-3-3|-------0-1-1-1=3|-----------3|3=5-------------0-1-1|
E|3-3--3--------|3-3--3----------|3-3--3------|----------3--3-------|

1st Interlude-
G|------------------------------------------------------------------|
D|------------------------------------------------------------------|
A|-----------------1-1-1-1-1-1-1-1-------------------3-3-3-3-3-3-3-3|
E|3-3-3-3-3-3-3-3-------------------1-1-1-1-1-1-1-1-----------------|

G|------------------|
D|------------------|
A|-----------------1|
E|3-3-3-3-3-3-3-3---|

2nd Interlude
G|-----------------------------------------------------------3-2-0-------|
D|----------------------------------------------------------------2-0----|
A|-----------------1-1-1-1-1-1-1-1-----------------3-3-3-3-3----------2-0|
E|3-3-3-3-3-3-3-3------------------1-1-1-1-1-1-1-1-----------------------|

G|------------------|
D|------------------|
A|-----------------1|
E|3-3-3-3-3-3-3-3---|

Ending
G|---------------|-------------------|--------------------|--------------------|
D|---------------|------3=5-3-2-3----|------3-------------|------3=5-3-2-3-----|
A|----3----------|----3-----------1-1|----3---3---3-1-1--1|----3-----------1-1-|
E|1-1---1-8-6-6-6|1-1----------------|1-1-------1---------|1-1----------------1|

Order

Verse

Chorus

Verse

Chorus
1st Interlude

Verse
2nd Interlude

Ending


That's it! It was hard to tab, but since no sites had any 3EB bass tabs, I
decided to take the time and tab it. Enjoy!!!
Tabbed and submitted by: Drew Durbin (8-TraK@mailexcite.com)

Almost there ...

Sign in to get your own page with links to favourite songs and more. You are just one click away...

Login with Facebook Login with Google