Log in

One click and you are in

Login with Facebook Login with Google

Why sign up and log in

Guitar Tabs Explorer
Third Eye Blind tabs for Burning man

Guitar tabs

Standard Tuning


Intro/Verse

E----------------------10-10-----------------------10-10-
B------7p5h7p5h7-------10-10-------7p5h7p5h7-------10-10-
G------7p6h7p6h7-------11-11---7---7p6h7p6h7-------11-11-
D--0---------------------------0-------------------------
A--------------------------------------------------------
E-----------------7-7-------------------------7-7--------

E----------------------10-10--------------------
B------7p5h7p5h7-------10-10-------7p5h7--------
G------7p6h7p6h7-------11-11---7---7p6h7--------
D--0---------------------------0----------------
A-----------------------------------------4-4-5-
E-----------------7-7---------------------2-2-3-


Verse1
 The rise and fall of my sloppy love, ....


PreChorus1
 A chord diagramG+G        A chord diagramG/AG/A                 A chord diagramG+G            A chord diagramG/DG/D
  Hold me down, i wanna find out....
   A chord diagramD MajorD
  need


Verse(instr)
Fill 1
E--9/10----
B-------10-
G----------

Verse2
 Blue diamond strike 'em anywhere, ....


Chorus
 A chord diagramG+G        A chord diagramG/AG/A                 A chord diagramG+G          A chord diagramG/DG/D
  Hold me down, i wanna find out, we say ...
 A chord diagramD MajorD           A chord diagramG+G       A chord diagramD MajorD           A chord diagramA augmentedA  A chord diagramD MajorD           A chord diagramG+G       A chord diagramD MajorD          A chord diagramG+G
  burning man, like a burning man, a ...
 A chord diagramF#F#                A chord diagramG+G
  and i won't get enough ...


Verse(instr)+ Fill 1


Verse3
 The stars they shine, in a empty ....


PreChorus


Chorus

			Tabbed by Joakim Ax  <ax78@hotmail.com>
------------------

	b= bend amount told( )
	r= release bend
ⓘ Guitar tab for 'Burning Man' by Third Eye Blind, an alternative rock band formed in 1993 from San Francisco, USA

Almost there ...

Sign in to get your own page with links to favourite songs and more. You are just one click away...

Login with Facebook Login with Google