Log in

One click and you are in

Login with Facebook Login with Google

Why sign up and log in

Guitar Tabs Explorer
Third Day bass tabs for Do you hear what i hear

Do You Hear What I Hear bass tab by Third Day

Third Day bass tabs for Do you hear what i hear

Bass tabs

-------------------------------------------------------------------------------
          Do You Hear What I Hear - Third Day
-------------------------------------------------------------------------------
Tuning: Standard
Key of C Major


Intro: Keep repeating
G|----0-------0---|----0-0-0-0-0-0-|
D|----------------|----------------|
A|3---------------|3---------------|
E|----------------|----------------|


G|----0-------0---|----0-0-0-0-0-0-|----0-------0---|----0-------0---|
D|----------------|----------------|--------3-------|--------3-------|
A|3---------------|3---------------|3---------------|3---------------|
E|----------------|----------------|----------------|----------------|
 Night      lamb       Do   what     see   see

G|----0-------0---|----0-0-0-0-0-0-|----0-------0---|----0-------0---|
D|----------------|----------------|--------3-------|--------3-------|
A|3---------------|3---------------|3---------------|3---------------|
E|----------------|----------------|----------------|----------------|


G|----------------|----------------|----------------|--------2---0---|
D|----------------|----------------|----------------|----------------|
A|0-------0---0---|----------------|----------------|----------------|
E|----------------|0-------0---0---|1-------3---1---|0---------------|
 Star  Star   Dancing     Tail  big   kite    with

Last time go to ending and skip 3 bars below.
G|----------------|----------------|----0-0-0-0-0-0-|
D|3---2---0---2---|----2-------2---|----------------|
A|----------------|3---------------|3---------------|
E|----------------|----------------|----------------|


Ending:
G|----------------|----0-------0---|----------------|----0-------0---|
D|3-------2-------|0---------------|3-------2-------|0---------------|
A|----------------|----------------|----------------|----------------|
E|----------------|----------------|----------------|----------------|


Outro: Keep repeating
G|----0-------0---|----0-0-0-0-0-0-|
D|----------------|----------------|
A|3---------------|3---------------|
E|----------------|----------------|

After 3 Versus use the Intro as a bridge. This song has many variations as
it has been done by many artists. Originally written by Noël Regney and
Gloria Shayne Baker, who wrote it as a plea for peace during the Cuban
Missile Crisis.

Almost there ...

Sign in to get your own page with links to favourite songs and more. You are just one click away...

Login with Facebook Login with Google