Log in

One click and you are in

Login with Facebook Login with Google

Why sign up and log in

Guitar Tabs Explorer
Thin Lizzy tabs for Little darling

Guitar tabs

Intro
|----------------|
|----------------|
|.--------------.|
|.--------------.|
|-2--------------|
|-0-------5--4-0-|

Verse
|-----------------|-----------------|
|-----------------|-----------------|
|-----------------|-----------------|
|-----------------|-----------------|
|-2---------------|-2---------------|
|-0---------------|-0--------5--4-0-|


Chorus                            X2
|-----------------|-----------------|-------|-------|-------|----|
|-----------------|-----------------|-------|-------|-------|----|
|.----------------|----------------.|-------|-------|-------|----|
|.6-------5-------|-4--------9-----.|-6--5--|-5--4--|-3--2--|----|
|-4-------3-------|-2----4-6-7--2-3-|-4--3--|-3--2--|-1--0--|-6--|
|-----------------|-----------------|-------|-------|-------|-4--|


Outro (These two chords come after the last Chorus)
|------|------|
|------|------|
|------|------|
|------|------|
|-4----|-2----|
|-2----|-0----|

Almost there ...

Sign in to get your own page with links to favourite songs and more. You are just one click away...

Login with Facebook Login with Google