Log in

One click and you are in

Login with Facebook Login with Google

Why sign up and log in

Guitar Tabs Explorer
Thin Lizzy bass tabs for Half caste

Bass tabs with lyrics

Tabed For Tune: E
Tabed By Janne Tschokkinen
E-Mail: janne.tschokkinen@kolumbus.fi
Site: http://www.kolumbus.fi/janne.tschokkinen

!!!These tabs were created without any kinds of money making
purposes and are to be used only for educational purposes!!!

!!!Do not re-publish this tab without permission!!!
Best viewed with 1024X768, but works also with 800X600
--------------------------------------------------------------

---->
Song Structure:

Intro:

Verse: 1 Fig.1 X4

Chorus: Fig.2 X4

Bridge: Fig.3 X4

Solo: Fig.1 X4, Fig.2 X4

Bridge: Fig.3 X4

Verse: 2 Fig.1 X4

Chorus: Fig.2 X4

Outro: Fig.3 till fade
---->


Guitar-
Verses/Solo Bg:
D | D | G | A

Chorus-
D | Hm | G | A


Bridge-
Hm (repeat randomly)


Bass-


Intro:
G|-------------7-7-|-----------------|-----------|-----------------|
D|-----4-7---------|-----------------|----4-7----|-----------------|
A|-5-5-------------|----2-5------4-7-|-5---------|----2-5------4-7-|
E|-----------------|-3-------5-5-----|-----------|-3-------5-5-----|

G|----------|-----------------|-----------|------------------|
D|----4-7---|-----------------|----4-7----|------------------|
A|-5--------|----2-5------4-7-|-5---------|-----2-5------4-7-|
E|----------|-3-------5-5-----|-----------|--3--------5------|

Fig.1: (It goes somewhat like this. If you can figure out the correct
fig for the first bar. Please mail me!)
                  X4
G|----------7------|------------------|
D|-----4-7----7----|------------------|
A|-5-5----------5--|-----2-5------4-7-|
E|-----------------|-3-3------5-5-----|

Fig.2:            X4
G|-------4----|-----------------|
D|-----4------|-----------------|
A|-5-5--------|----2-5------4-7-|
E|------------|-3-------5-5-----|

Fig.3: (only during outro)   X4
G|------------|--------------------|
D|------------|--------------------|
A|-2-2--(2-2)-|-2-2--0-0-----------|
E|------------|-----------3-3--0-0-|

Almost there ...

Sign in to get your own page with links to favourite songs and more. You are just one click away...

Login with Facebook Login with Google