Log in

One click and you are in

Login with Facebook Login with Google

Why sign up and log in

Guitar Tabs Explorer
Thin Lizzy chords for Dancin in the moonlight

Guitar chords with lyrics

Here is the tab for "Dancin' in the Moonlight" by Thin Lizzy, as performed
live on their album "Live & Dangerous". The first (slower) part of the solo
is transcribed, but was done so by memory and, as such, will most likely
have errors. I will post a corrected version of the solo as soon as I have
checked it against my records.
This TAB transcription was created using TAB MASTER version 1.0


  Main Riff (used in intro and elsewhere)

e:---------------------------------------|----------------------------------|
B:---------------------------------------|----------------------------------|
G:---------------------------------------|----------------------------------|
D:-------------1-----1---------------1---|----------------------------------|
A:-1--1--4--4---------------4--1--4------|---1--1--4--4--2--2-----1---------|
E:---------------------------------------|---------------------------4--2---|


The chord pattern is as follows :

	A chord diagramD#mD#m   A chord diagramC#C#   A chord diagramBB   A chord diagramF#F#    (repeat as necessary)

The chords are used throughout the song, with the riff thrown in at
appropriate times.


This is the first part of the solo ...


e:---------------------------------------------------------|
B:---11--14b(16)-----b(16)14--11--14b(16)-----b(16)14--11--|
G:---------------------------------------------------------|
D:---------------------------------------------------------|
A:---------------------------------------------------------|
E:---------------------------------------------------------|



e:---------------------------------------------------------------------------|
B:-14b(16)--14--11-----------------------------------------------------------|
G:----------------------11--11-----13--11--13b(15)--13--11--13b(15)----------|
D:------------------13------------------------------------------------11--13-|
A:---------------------------------------------------------------------------|
E:---------------------------------------------------------------------------|




e:--------------17-17--15-15--12-12--11-12--15-15--17-17~--|
B:---------------------------------------------------------|
G:-11------------------------------------------------------|
D:-----13--11----------------------------------------------|
A:---------------------------------------------------------|
E:---------------------------------------------------------|


This is a corrected version of the first part of the solo from the LIVE &
DANGEROUS album ... (as posted earlier)

This TAB transcription was created using TAB MASTER version 1.0


e:---------------------------------------------------------|
B:---11--14b(16)-----b(16)14--11--14b(16)-----b(16)14--11--|
G:---------------------------------------------------------|
D:---------------------------------------------------------|
A:---------------------------------------------------------|
E:---------------------------------------------------------|


e:---------------------------------------------------------------------------|
B:-14b(16)--14--11-----------------------------------------------------------|
G:----------------------11--11-----13--11--13b(15)--13--11--13b(15)----------|
D:------------------13------------------------------------------------11--13-|
A:---------------------------------------------------------------------------|
E:---------------------------------------------------------------------------|


e:---------------16-16--14-14--12-12--11-12--14-14--16-16~--|
B:----------------------------------------------------------|
G:-11-------------------------------------------------------|
D:-----13--11~----------------------------------------------|
A:----------------------------------------------------------|
E:----------------------------------------------------------|

Almost there ...

Sign in to get your own page with links to favourite songs and more. You are just one click away...

Login with Facebook Login with Google